Oops, an error
Loading. Please wait.

Man Of The World Tab

ver2
ver2

Intro

Whole song

Interactive

More versions @911Tabs.com
22,865 views 18 this week
4 commentsread comments
1 2 3 4 5
excellent!
x 4
Autoscroll
+/-
esc
set tempo
stop
Contributor
Hey! There's an official Ultimate Guitar app which is ideal
for learning songs when you're away from computer. Get the app
WARNING: You are trying to view
                                    content from Ultimate-Guitar.com
                                    in an unauthorized application,
                                    which is prohibited.

                                    Please use an official Ultimate
                                    Guitar Tabs application for iPhone,
                                    iPad or Android to access legitimate
                                    chords, guitar, bass, and drum tabs
                                    from Ultimate-Guitar.com database.

                                    Type "ultimate guitar tabs" in Apple
                                    App Store's or Android Market's
                                    search to find the application.
                                MAN OF THE WORLD
                          As recorded by Fleetwood Mac


Gtr I (E A D G B E) - 'Lead'
Gtr II (E A D G B E) - 'Overdub'
Gtr III (E A D G B E) - 'Rythm'
Gtr IV (E A D G B E) - 'Classical'

 Intro
  Q=90
  D                  A
 4/4
  Gtr I
  E  E E E E E E E   +H        +E  Q   E
|-5--3-2-3---2---5-|-(5)-------(5)-------|
|------------------|---------------------|
|------------------|---------------------|
|-0------0---0---2-|-(2)-------(2)-----5-|
|------------------|---------------------|
|------------------|---------------------|
| Q.     E E E E E   +H        +E  Q   E
|
| Gtr III
| Q    E E E E E E    E  E E E +E  E E E
|-2----2-2-2-2-2-2-|--2--2-2-2-(2)-2-2-2-|
|-3----3-3-3-3-3-3-|--2--2-2-2-(2)-2-2-2-|
|-2----2-2-2-2-2-2-|--2--2-2-2-(2)-2-2-2-|
|-0----0-0-0-0-0-0-|--2--2-2-2-(2)-2-2-2-|
|------------------|--0--0-0-0-(0)-0-0-0-|
|------------------|---------------------|


  Gm                  D
  E Q   E  E  E E E   +E  E E E +E  Q.
|-3-3---5-----5---2-|-(2)-----2-(2)--------|
|-------------------|-----3---------3------|
|-------------------|-------2--------------|
|-5---5-5-----5-0-0-|-(0)-------(0)------0-|
|-------------------|----------------------|
|-------------------|----------------------|
| Q   E E  E  E E E   +H        +Q.      E
|
| E E E E +E  E E E    E  E E E +E  E  E E
|-3-3-3-3-(3)-3-3-3-|--2--2-2-2-(2)-2--2-2-|
|-3-3-3-3-(3)-3-3-3-|--3--3-3-3-(3)-3--3-3-|
|-3-3-3-3-(3)-3-3-3-|--2--2-2-2-(2)-2--2-2-|
|-5-5-5-5-(5)-5-5-5-|--0--0-0-0-(0)-0--0-0-|
|-5-5-5-5-(5)-5-5-5-|----------------------|
|-3-3-3-3-(3)-3-3-3-|----------------------|


  D                 A
  E E E E E E E E   +E  E E E +E  Q.
|-5-3-2-3---2---5-|-(5)-----------5------|
|-----------------|-----2---2-(2)--------|
|-----------------|-------2--------------|
|-0-0---0---0-0-2-|-(2)-----2-(2)-2------|
|-----------------|----------------------|
|-----------------|----------------------|
| E Q   E E E E E   +E  Q   E +E  Q.
|
| E E E E E E Q      E  E E E +E  E  E E
|-2-2-2-2-2-2-2---|--2--2-2-2-(2)-2--2-2-|
|-3-3-3-3-3-3-3---|--2--2-2-2-(2)-2--2-2-|
|-2-2-2-2-2-2-2---|--2--2-2-2-(2)-2--2-2-|
|-0-0-0-0-0-0-0---|--2--2-2-2-(2)-2--2-2-|
|-----------------|--0--0-0-0-(0)-0--0-0-|
|-----------------|----------------------|
|
| W                  W
|-----------------|----------------------|
|-----------------|----------------------|
|-----------------|----------------------|
|-----------------|----------------------|
|-----------------|----------------------|
|-----------------|----------------------|


  G6                   Bm
   Q   E E  E  E E E    W
|-^0---0-3--3--2-0---|-^7--------------|
|-^0---0-0--0--0-0---|-^7--------------|
|-^0-----------------|-^7--------------|
|--------------------|-^9--------------|
|--------------------|-----------------|
|--------------------|-----------------|
|
|  E E E E +E  E E E    W
|--0-0-0-0-(0)-0-0-0-|-^2--------------|
|--0-0-0-0-(0)-0-0-0-|-^3--------------|
|--0-0-0-0-(0)-0-0-0-|-^4--------------|
|--0-0-0-0-(0)-0-0-0-|-^4--------------|
|--0-0-0-0-(0)-0-0-0-|-^2--------------|
|--------------------|-----------------|
|
|                            Gtr II
|  W                    H    E E E E
|--------------------|-----------------|
|--------------------|-----------------|
|--------------------|-------4---------|
|--------------------|---------4-------|
|--------------------|-----------5s9\--|
|--------------------|-----------------|


               Verse 1
                D                  A                     Gm
  +W            E  E E E E E E E   +H        +E  Q   E   E Q   E  E  E E E
|-(7)---------|-5--3-2-3---2---5-|-(5)-------(5)-------|-3-3---5-----5---2--|
|-(7)---------|------------------|---------------------|--------------------|
|-(7)---------|------------------|---------------------|--------------------|
|-(9)---------|-0------0---0---2-|-(2)-------(2)-----5-|-5---5-5-----5-0-0--|
|-------------|------------------|---------------------|--------------------|
|-------------|------------------|---------------------|--------------------|
|               Q.     E E E E E   +H        +E  Q   E   Q   E E  E  E E E
|
| +W            Q    E E E E E E    E  E E E +E  E E E   E E E E +E  E E E
|-(2)---------|-2----2-2-2-2-2-2-|--2--2-2-2-(2)-2-2-2-|-3-3-3-3-(3)-3-3-3--|
|-(3)---------|-3----3-3-3-3-3-3-|--2--2-2-2-(2)-2-2-2-|-3-3-3-3-(3)-3-3-3--|
|-(4)---------|-2----2-2-2-2-2-2-|--2--2-2-2-(2)-2-2-2-|-3-3-3-3-(3)-3-3-3--|
|-(4)---------|-0----0-0-0-0-0-0-|--2--2-2-2-(2)-2-2-2-|-5-5-5-5-(5)-5-5-5--|
|-(2)---------|------------------|--0--0-0-0-(0)-0-0-0-|-5-5-5-5-(5)-5-5-5--|
|-------------|------------------|---------------------|-3-3-3-3-(3)-3-3-3--|
|
|  H.      Q    W                   W                    W
|-------------|------------------|---------------------|--------------------|
|-------------|------------------|---------------------|--------------------|
|-------------|------------------|---------------------|--------------------|
|-------------|------------------|---------------------|--------------------|
|-\2----------|------------------|---------------------|--------------------|
|-------------|------------------|---------------------|--------------------|


  D                      D
  +E  E E E +E  Q.       E E E E E E E E
|-(2)-----2-(2)--------|-5-3-2-3---2---5-|
|-----3---------3------|-----------------|
|-------2--------------|-----------------|
|-(0)-------(0)------0-|-0-0---0---0-0-2-|
|----------------------|-----------------|
|----------------------|-----------------|
| +H        +Q.      E   E Q   E E E E E
|
|  E  E E E +E  E  E E   E E E E E E Q
|--2--2-2-2-(2)-2--2-2-|-2-2-2-2-2-2-2---|
|--3--3-3-3-(3)-3--3-3-|-3-3-3-3-3-3-3---|
|--2--2-2-2-(2)-2--2-2-|-2-2-2-2-2-2-2---|
|--0--0-0-0-(0)-0--0-0-|-0-0-0-0-0-0-0---|
|----------------------|-----------------|
|----------------------|-----------------|


  A                      G6
  +E  E E E +E  Q.        Q   E E  E  E E E
|-(5)-----------5------|-^0---0-3--3--2-0----|
|-----2---2-(2)--------|-^x---0-0--0--0-0----|
|-------2--------------|-^x------------------|
|-(2)-----2-(2)-2------|---------------------|
|----------------------|---------------------|
|----------------------|---------------------|
| +E  Q   E +E  Q.
|
|  E  E E E +E  E  E E    E E E E +E  E E E
|--2--2-2-2-(2)-2--2-2-|--0-0-0-0-(0)-0-0-0--|
|--2--2-2-2-(2)-2--2-2-|--0-0-0-0-(0)-0-0-0--|
|--2--2-2-2-(2)-2--2-2-|--0-0-0-0-(0)-0-0-0--|
|--2--2-2-2-(2)-2--2-2-|--0-0-0-0-(0)-0-0-0--|
|--0--0-0-0-(0)-0--0-0-|--0-0-0-0-(0)-0-0-0--|
|----------------------|---------------------|


  Bm                     Gm
   Q  E E +E  E    Q      H    +Q.   E
|-^7-------------------|-^3----(3)-----|
|-^7----------7--------|-^3----(3)-----|
|-^7--7-7-(7)----------|-^3----(3)---2-|
|-^9-------------------|-^5----(5)-----|
|----------------------|-^5----(5)-----|
|----------------------|---------------|
|
|  Q  E E  E  E    E E    H    +Q.   E
|--2--2-2--2--2----2---|-^3----(3)-----|
|--3--3-3--3--3----3---|-^3----(3)-----|
|--4--4-4--4--4----4---|-^3----(3)-----|
|--4--4-2--4--4----4---|-^5----(5)-----|
|--2--2-2--2--2----2---|-^5----(5)-----|
|----------------------|-^3----(3)-----|
|
|             Gtr II
|                         ~~
|  H       E  E    E E    W
|----------------------|-10------------|
|----------------------|---------------|
|-------------9b10r7---|---------------|
|--------------------9-|---------------|
|----------------------|---------------|
|----------------------|---------------|


  D
    E  E E E E E Q    +W
|-^-2--0-0-0-0h2-2--|-(2)--------------------|
|-^-3------3-3---3--|-(3)--------------------|
|-^-2--------0h2-2--|-(2)--------------------|
|-------------------|------------------------|
|-------------------|------------------------|
|-------------------|------------------------|
|
|   W                  W
|-------------------|------------------------|
|-------------------|------------------------|
|-------------------|------------------------|
|-------------------|------------------------|
|-------------------|------------------------|
|-------------------|------------------------|
|
|                     Gtr IV
|  +E  E Q   H         E  E E E E T T S E E
|-(10)--------------|---------5-3-2h3p2------|
|-------------------|--3----3-----------3----|
|-------------------|-----2---------------2--|
|-------------------|------------------------|
|-------------------|------------------------|
|-------------------|------------------------|


 Verse 2
  D                    A
  E  E E E E E   E E   +H        +E  Q   E
|-5--3-2-3---2-----5-|-(5)-------(5)-------|
|--------------------|---------------------|
|--------------------|---------------------|
|-0------0---0-----2-|-(2)-------(2)-----5-|
|--------------------|---------------------|
|--------------------|---------------------|
| Q.     E E E   E E   +H        +E  Q   E
|
| Q    E E E E   E E    E  E E E +E  E E E
|-2----2-2-2-2---2-2-|--2--2-2-2-(2)-2-2-2-|
|-3----3-3-3-3---3-3-|--2--2-2-2-(2)-2-2-2-|
|-2----2-2-2-2---2-2-|--2--2-2-2-(2)-2-2-2-|
|-0----0-0-0-0---0-0-|--2--2-2-2-(2)-2-2-2-|
|--------------------|--0--0-0-0-(0)-0-0-0-|
|--------------------|---------------------|
|
| H.           a Q      Q    Q    E  E E E
|--------------------|---------------------|
|--------------------|---------------2-2---|
|--------------2S7---|--6----6----2------2-|
|-0------------------|---------------------|
|--------------------|---------------------|
|--------------------|---------------------|


  Gm                      D
  E Q       E  E  E E E   +E  E E E +E  Q.
|-3-3-------5-----5---2-|-(2)-----2-(2)--------|
|-----------------------|-----3---------3------|
|-----------------------|-------2--------------|
|-5-----5---5-----5-0-0-|-(0)-------(0)------0-|
|-----------------------|----------------------|
|-----------------------|----------------------|
| Q     E   E  E  E E E   +H        +Q.      E
|
| E E   E   E +E  E E E    E  E E E +E  E  E E
|-3-3---3---3-(3)-3-3-3-|--2--2-2-2-(2)-2--2-2-|
|-3-3---3---3-(3)-3-3-3-|--3--3-3-3-(3)-3--3-3-|
|-3-3---3---3-(3)-3-3-3-|--2--2-2-2-(2)-2--2-2-|
|-5-5---5---5-(5)-5-5-5-|--0--0-0-0-(0)-0--0-0-|
|-5-5---5---5-(5)-5-5-5-|----------------------|
|-3-3---3---3-(3)-3-3-3-|----------------------|
|
| |---3---|
| Q   Q   Q    Q    Q      W
|-----------------------|----------------------|
|-----------------------|----------------------|
|-3---3---3----6----7s==|==2-------------------|
|-----------------------|----------------------|
|-----------------------|----------------------|
|-----------------------|----------------------|


  D                   A
  E E E E   E E E E   +E  E E E +E  Q.
|-5-3-2-3-----2---5-|-(5)-----------5------|
|-------------------|-----2---2-(2)--------|
|-------------------|-------2--------------|
|-0-0---0-----0-0-2-|-(2)-----2-(2)-2------|
|-------------------|----------------------|
|-------------------|----------------------|
| E Q   E   E E E E   +E  Q   E +E  Q.
|
| E E E E   E E Q      E  E E E +E  E  E E
|-2-2-2-2---2-2-2---|--2--2-2-2-(2)-2--2-2-|
|-3-3-3-3---3-3-3---|--2--2-2-2-(2)-2--2-2-|
|-2-2-2-2---2-2-2---|--2--2-2-2-(2)-2--2-2-|
|-0-0-0-0---0-0-0---|--2--2-2-2-(2)-2--2-2-|
|-------------------|--0--0-0-0-(0)-0--0-0-|
|-------------------|----------------------|
|
| H       a Q   Q      Q    E E  H
|-------------------|----------------------|
|-------------------|----------------------|
|-2-------2S7---7---|--6----6-6------------|
|-------------------|----------------------|
|-------------------|----------------------|
|-------------------|----------------------|


  G6                   Bm
   Q   E E  E  E E E    Q  E E +E  E Q
|-^0---0-3--3--2-0---|-^7-------------------------|
|-^x---0-0--0--0-0---|-^7----------7--------------|
|-^x-----------------|-^7--7-7-(7)----------------|
|--------------------|-^9-------------------------|
|--------------------|----------------------------|
|--------------------|----------------------------|
|
|  E E E E +E  E E E    Q  E E  E  E E       E
|--0-0-0-0-(0)-0-0-0-|--2--2-2--2--2-2------------|
|--0-0-0-0-(0)-0-0-0-|--3--3-3--3--3-3------------|
|--0-0-0-0-(0)-0-0-0-|--4--4-4--4--4-4------------|
|--0-0-0-0-(0)-0-0-0-|--4--4-4--4--4-4------------|
|--0-0-0-0-(0)-0-0-0-|--2--2-2--2--2-2------------|
|--------------------|----------------------------|
|
|                              Gtr II
|  W                    H       Q    S  E       S
|--------------------|-----------------12b13---12-|
|--------------------|----------------------------|
|--------------------|----------------------------|
|--------------------|----------------------------|
|--------------------|----------------------------|
|--------------------|----------------------------|


  Gm                      D
   H            +Q.   E    E E E E E E Q    +W
|-^3------------(3)-----|-^2-0-0-0-0h2-2--|-(2)----|
|-^3------------(3)-----|-^3-----3-3---3--|-(3)----|
|-^3------------(3)---2-|-^2-------0h2-2--|-(2)----|
|-^5------------(5)-----|-----------------|--------|
|-^5------------(5)-----|-----------------|--------|
|-----------------------|-----------------|--------|
|
|  H            +Q.   E    W                 W
|-^3------------(3)-----|-----------------|--------|
|-^3------------(3)-----|-----------------|--------|
|-^3------------(3)-----|-----------------|--------|
|-^5------------(5)-----|-----------------|--------|
|-^5------------(5)-----|-----------------|--------|
|-^3------------(3)-----|-----------------|--------|
|
|     ~~~~~~~~
|  S  E.  +Q    +H         W                 W
|----10--(10)--(10)-----|-----------------|--------|
|-----------------------|-----------------|--------|
|-----------------------|-----------------|--------|
|-----------------------|-----------------|--------|
|-----------------------|-----------------|--------|
|-----------------------|-----------------|--------|


 Guitar Solo
  D                         A6
  Q.    E H                 Q.         E  H
|-2-----2-2---------------|-2----------2--2------------|
|-3-----3-3---------------|-2----------2--2------------|
|-2-----2-2---------------|-2----------2--2------------|
|-0-----0-0---------------|-2----------2--2------------|
|-------------------------|----------------------------|
|-------------------------|----------------------------|
|
| Q   E E E   E   E   E     E  E    E  E +E  E E   E
|-2---2-2-2---2---2---2---|-2--2----2--2-(2)-2-2---2---|
|-3---3-3-3---3---3---3---|-2--2----2--2-(2)-2-2---2---|
|-2---2-2-2---2---2---2---|-2--2----2--2-(2)-2-2---2---|
|-0---0-0-0---0---0---0---|-2--2----2--2-(2)-2-2---2---|
|-------------------------|-0--0----0--0-(0)-0-0---0---|
|-------------------------|----------------------------|
|
| Gtr II
|         |--3--| |--3--|                      |--3--|
| H       E E   E E E   E   E  E   +Q    +Q    E E   E
|-5-------2-3---5-2-------|----------------------------|
|-------------------3-----|-5--5b7r(5)---(5)-----3-----|
|-----------------------4-|--------------------------3-|
|-------------------------|----------------------------|
|-------------------------|----------------------------|
|-------------------------|----------------------------|


  Gm                       D
  Q.     E  H              Q.               E +E  Q.
|-3------3--3------------|-2----------------2-(2)-2-------|
|-3------3--3------------|-3----------------3-(3)-3-------|
|-3------3--3------------|-2----------------2-(2)-2-------|
|-5------5--5------------|-0----------------0-(0)-0-------|
|------------------------|--------------------------------|
|------------------------|--------------------------------|
|
| E  E E E +E  E E   E     E       E   E    E +E  E  E E
|-3--3-3-3-(3)-3-3---3---|-2-------2---2----2-(2)-2--2-2--|
|-3--3-3-3-(3)-3-3---3---|-3-------3---3----3-(3)-3--3-3--|
|-3--3-3-3-(3)-3-3---3---|-2-------2---2----2-(2)-2--2-2--|
|-5--5-5-5-(5)-5-5---5---|-0-------0---0----0-(0)-0--0-0--|
|-5--5-5-5-(5)-5-5---5---|--------------------------------|
|-3--3-3-3-(3)-3-3---3---|--------------------------------|
|
|                                      ~~~~
|                |--3--|
| E  E Q   +Q    E E   E   S    E    S Q       Q     Q
|------------------------|-----------5--------------------|
|-3--5-3---(3)-----5---3-|-5b7==5r-----5b7=====5r---------|
|------------------------|--------------------------------|
|------------------------|--------------------------------|
|------------------------|--------------------------------|
|------------------------|--------------------------------|


  D                                A6
   Q.    E  H                       Q.          E   H
|--2-----2--2--------------------|--2-----------2---2--------------|
|--3-----3--3--------------------|--2-----------2---2--------------|
|--2-----2--2--------------------|--2-----------2---2--------------|
|--0-----0--0--------------------|--2-----------2---2--------------|
|--------------------------------|---------------------------------|
|--------------------------------|---------------------------------|
|
|  Q   E E  E    E     E    E       E   E     E E  +E  E E    E
|--2---2-2--2----2-----2----2----|--2---2-----2-2--(2)-2-2----2----|
|--3---3-3--3----3-----3----3----|--2---2-----2-2--(2)-2-2----2----|
|--2---2-2--2----2-----2----2----|--2---2-----2-2--(2)-2-2----2----|
|--0---0-0--0----0-----0----0----|--2---2-----2-2--(2)-2-2----2----|
|--------------------------------|--0---0-----0-0--(0)-0-0----0----|
|--------------------------------|---------------------------------|
|
|  ~~~
|           |---3---|  |---3---|                         |---3---|
|  H        E  E    E  E  E    E    E   E     Q    +Q    E  E    E
|-17-------19-17---15-14---------|---------------------------------|
|------------------------15------|-17--17b19r17---(17)-----15------|
|-----------------------------16-|------------------------------15-|
|--------------------------------|---------------------------------|
|--------------------------------|---------------------------------|
|--------------------------------|---------------------------------|


  Gm                               D
   Q.            E   H              Q.               E  +E   Q.
|--3-------------3---3-----------|--2----------------2--(2)--2-------||
|--3-------------3---3-----------|--3----------------3--(3)--3-------||
|--3-------------3---3-----------|--2----------------2--(2)--2-------||
|--5-------------5---5-----------|--0----------------0--(0)--0-------||
|--------------------------------|-----------------------------------||
|--------------------------------|-----------------------------------||
|
|  E   E  E      E  +E   E  E  E    Q         Q          Q      E E
|--3---3--3------3--(3)--3--3--3-|--2---------2----------2------2-2--||
|--3---3--3------3--(3)--3--3--3-|--3---------3----------3------3-3--||
|--3---3--3------3--(3)--3--3--3-|--2---------2----------2------2-2--||
|--5---5--5------5--(5)--5--5--5-|--0---------0----------0------0-0--||
|--5---5--5------5--(5)--5--5--5-|-----------------------------------||
|--3---3--3------3--(3)--3--3--3-|-----------------------------------||
|
|         ~~~~~~~                             ~~~~~~~
|  E   E  Q         +Q      E  E    E   S  S  Q         +Q      Q
|--------------------------------|-----------------------------------||
|-15--17-17pb19====(17)r---17-15-|-15--17h19-17pb19====(17)r---------||
|--------------------------------|-----------------------------------||
|--------------------------------|-----------------------------------||
|--------------------------------|-----------------------------------||
|--------------------------------|-----------------------------------||


 Bridge
  F#5 F#m
  Q   Q    S   S E S   E     S   Q     Q  Q   Q
|-----2------------------------|-------2------2--|
|-----2------------------------|-------2------2--|
|-----2------------------------|-------2------2--|
|-----4----------2-4p==2-----4-|-------4------4--|
|-4---4----2h==4---------------|-4-----4--4---4--|
|-2---2------------------------|-2-----2--2---2--|
|
| E E Q    E     E Q             E   E Q  E E Q
|-2-2-2----2-----2-2-----------|-2---2-2--2-2-2--|
|-2-2-2----2-----2-2-----------|-2---2-2--2-2-2--|
|-2-2-2----2-----2-2-----------|-2---2-2--2-2-2--|
|-4-4-4----4-----4-4-----------|-4---4-4--4-4-4--|
|-4-4-4----4-----4-4-----------|-4---4-4--4-4-4--|
|-2-2-2----2-----2-2-----------|-2---2-2--2-2-2--|
|
|                                ~~~
|                  |--3--|
| Q   E. S E     E S S   S E     H        H
|----------4b5---4-2h4p==2-----|-----------------|
|--------2-----------------5---|-----------------|
|------------------------------|-4b6-------------|
|------------------------------|-----------------|
|------------------------------|-----------------|
|------------------------------|-----------------|


  E5  Em
  E E Q  E  E E  E    E  E  Q     E E Q
|-----0------------|--------0---------0---|
|-----0------------|--------0---------0---|
|-----0------------|--------0---------0---|
|-----2------------|--------2---------2---|
|-2-2-2--2--2------|--2--2--2-----2-2-2---|
|-0-0-0--0--0-3--2-|--0--0--0-----0-0-0---|
|
| E E Q  E  E Q       E  E  Q     E E Q
|-0-0-0--0--0-0----|--0--0--0-----0-0-0---|
|-0-0-0--0--0-0----|--0--0--0-----0-0-0---|
|-0-0-0--0--0-0----|--0--0--0-----0-0-0---|
|-2-2-2--2--2-2----|--2--2--2-----2-2-2---|
|-2-2-2--2--2-2----|--2--2--2-----2-2-2---|
|-0-0-0--0--0-0----|--0--0--0-----0-0-0---|
|
|                                 ~~
| H      Q.      E    E  E  E  E  H
|------------------|-12-14-15-17-19-------|
|---------------12-|----------------------|
|------------------|----------------------|
|------------------|----------------------|
|------------------|----------------------|
|------------------|----------------------|


  F#5 F#m                      F#5    F#m            E5  Em
  Q   Q    S   S E S   S   E   Q      Q  E E S S E   E E Q  E E Q
|-----2----------------------|--------2------------|-----0------0--|
|-----2----------------------|--------2------------|-----0------0--|
|-----2----------------------|--------2------------|-----0------0--|
|-----4----------2---------2-|--------4------------|-----2------2--|
|-4---4----2h==4---2h==4-----|-4------4--4-4-2h4---|-2-2-2--2-2-2--|
|-2---2----------------------|-2------2--2-2-------|-0-0-0--0-0-0--|
|
| E E Q    E     E Q           E    E Q  E E Q       E E Q  E E Q
|-2-2-2----2-----2-2---------|-2----2-2--2-2-2-----|-0-0-0--0-0-0--|
|-2-2-2----2-----2-2---------|-2----2-2--2-2-2-----|-0-0-0--0-0-0--|
|-2-2-2----2-----2-2---------|-2----2-2--2-2-2-----|-0-0-0--0-0-0--|
|-4-4-4----4-----4-4---------|-4----4-4--4-4-4-----|-2-2-2--2-2-2--|
|-4-4-4----4-----4-4---------|-4----4-4--4-4-4-----|-2-2-2--2-2-2--|
|-2-2-2----2-----2-2---------|-2----2-2--2-2-2-----|-0-0-0--0-0-0--|
|
|                              ~~~~
|                  |--3--|
| Q   E. S E     E S S   S E   W                     W
|----------4b5---4-2h4p==2---|---------------------|---------------|
|--------2-----------------5-|-5pb7----------------|---------------|
|----------------------------|---------------------|---------------|
|----------------------------|---------------------|---------------|
|----------------------------|---------------------|---------------|
|----------------------------|---------------------|---------------|


               Verse 3
  A             D                  A                     Gm
   H.      Q    E  E E E E E E E   +H        +E  Q   E   E Q   E  E  E E E
|-------------|-5--3-2-3---2---5-|-(5)-------(5)-------|-3-3---5-----5---2--|
|-^2----------|------------------|---------------------|--------------------|
|-^2----------|------------------|---------------------|--------------------|
|-^2----------|-0------0---0---2-|-(2)-------(2)-----5-|-5---5-5-----5-0-0--|
|-^0----------|------------------|---------------------|--------------------|
|-------------|------------------|---------------------|--------------------|
|               Q.     E E E E E   +H        +E  Q   E   Q   E E  E  E E E
|
|  W            Q    E E E E E E    E  E E E +E  E E E   E E E E +E  E E E
|-^2----------|-2----2-2-2-2-2-2-|--2--2-2-2-(2)-2-2-2-|-3-3-3-3-(3)-3-3-3--|
|-^2----------|-3----3-3-3-3-3-3-|--2--2-2-2-(2)-2-2-2-|-3-3-3-3-(3)-3-3-3--|
|-^2----------|-2----2-2-2-2-2-2-|--2--2-2-2-(2)-2-2-2-|-3-3-3-3-(3)-3-3-3--|
|-^2----------|-0----0-0-0-0-0-0-|--2--2-2-2-(2)-2-2-2-|-5-5-5-5-(5)-5-5-5--|
|-^0----------|------------------|--0--0-0-0-(0)-0-0-0-|-5-5-5-5-(5)-5-5-5--|
|-------------|------------------|---------------------|-3-3-3-3-(3)-3-3-3--|


  D                      D
  +E  E E E +E  Q.       E E E E E E E E
|-(2)-----2-(2)--------|-5-3-2-3---2---5-|
|-----3---------3------|-----------------|
|-------2--------------|-----------------|
|-(0)-------(0)------0-|-0-0---0---0-0-2-|
|----------------------|-----------------|
|----------------------|-----------------|
| +H        +Q.      E   E Q   E E E E E
|
|  E  E E E +E  E  E E   E E E E E E Q
|--2--2-2-2-(2)-2--2-2-|-2-2-2-2-2-2-2---|
|--3--3-3-3-(3)-3--3-3-|-3-3-3-3-3-3-3---|
|--2--2-2-2-(2)-2--2-2-|-2-2-2-2-2-2-2---|
|--0--0-0-0-(0)-0--0-0-|-0-0-0-0-0-0-0---|
|----------------------|-----------------|
|----------------------|-----------------|


  A                      G6
  +E  E E E +E  Q.        Q   E E  E  E E E
|-(5)-----------5------|-^0---0-3--3--2-0----|
|-----2---2-(2)--------|-^0---0-0--0--0-0----|
|-------2--------------|-^0------------------|
|-(2)-----2-(2)-2------|---------------------|
|----------------------|---------------------|
|----------------------|---------------------|
| +E  Q   E +E  Q.
|
|  E  E E E +E  E  E E    E E E E +E  E E E
|--2--2-2-2-(2)-2--2-2-|--0-0-0-0-(0)-0-0-0--|
|--2--2-2-2-(2)-2--2-2-|--0-0-0-0-(0)-0-0-0--|
|--2--2-2-2-(2)-2--2-2-|--0-0-0-0-(0)-0-0-0--|
|--2--2-2-2-(2)-2--2-2-|--0-0-0-0-(0)-0-0-0--|
|--0--0-0-0-(0)-0--0-0-|--0-0-0-0-(0)-0-0-0--|
|----------------------|---------------------|


  Bm                     Gm              D
   Q  E E +E  E    Q      H    +Q.   E     E  E E E E E Q    +W
|-^7-------------------|-^3----(3)-----|-^-2--0-0-0-0h2-2--|-(2)----|
|-^7----------7--------|-^3----(3)-----|-^-3------3-3---3--|-(3)----|
|-^7--7-7-(7)----------|-^3----(3)---2-|-^-2--------0h2-2--|-(2)----|
|-^9-------------------|-^5----(5)-----|-------------------|--------|
|----------------------|-^5----(5)-----|-------------------|--------|
|----------------------|---------------|-------------------|--------|
|
|  Q  E E  E  E    E E    H    +Q.   E     W                  W
|--2--2-2--2--2----2---|-^3----(3)-----|-------------------|--------|
|--3--3-3--3--3----3---|-^3----(3)-----|-------------------|--------|
|--4--4-4--4--4----4---|-^3----(3)-----|-------------------|--------|
|--4--4-2--4--4----4---|-^5----(5)-----|-------------------|--------|
|--2--2-2--2--2----2---|-^5----(5)-----|-------------------|--------|
|----------------------|-^3----(3)-----|-------------------|--------|
|
| Gtr II
|                         ~~
|  H       E  E    E E    W               +E  E Q   H         W
|----------------------|-10------------|-(10)--------------|--------|
|----------------------|---------------|-------------------|--------|
|-------------9b10r7---|---------------|-------------------|--------|
|--------------------9-|---------------|-------------------|--------|
|----------------------|---------------|-------------------|--------|
|----------------------|---------------|-------------------|--------|


       Em
    Q     H.                +W
|------^<12>------------|-(<12>)-------------------|
|------^<12>------------|--------------------------|
|------^<12>------------|--------------------------|
|-----------------------|--------------------------|
|-----------------------|--------------------------|
|-----------------------|--------------------------|
|
|   W                        W
|-^-2-------------------|-^--0---------------------|
|-^-2-------------------|-^--0---------------------|
|-^-2-------------------|-^--0---------------------|
|-^-4-------------------|-^--2---------------------|
|-^-4-------------------|-^--2---------------------|
|-^-2-------------------|-^--0---------------------|
|
|   Q     E  E  E  Q.        Q       Q     +H
|-^-9----12--9----------|-^--0----^<12>--(<12>)----|
|-^10----------10-------|-^--0----^<12>------------|
|-^11-------------11----|-^--0----^<12>------------|
|-----------------------|--------------------------|
|-----------------------|--------------------------|
|-----------------------|--------------------------|


    +W
|-(<12>)----------------------|
|-----------------------------|
|-----------------------------|
|-----------------------------|
|-----------------------------|
|-----------------------------|
|
|    W
|-^--2------------------------|
|-^--2------------------------|
|-^--2------------------------|
|-^--4------------------------|
|-^--4------------------------|
|-^--2------------------------|
|
|    E    E  E  E  +E   E  Q
|-^--9---10-12-10-(10)--------|
|-^-10-----------------10-----|
|-^-11--------------------12--|
|-----------------------------|
|-----------------------------|
|-----------------------------|


                         D6
   W                       W              W
|----------------------|-^<7>-----------|------*|
|----------------------|-^<7>-----------|------*|
|----------------------|-^<7>-----------|------*|
|----------------------|----------------|------*|
|----------------------|----------------|------*|
|----------------------|----------------|------*|
|
|  W                       W              W
|-^0-------------------|-^-2------------|------*|
|-^0-------------------|-^-3------------|------*|
|-^0-------------------|-^-2------------|------*|
|-^2-------------------|-^-0------------|------*|
|-^2-------------------|----------------|------*|
|-^0-------------------|----------------|------*|
|
|  Q     Q     +H          H     +H       W
|-^0--^<12>--(<12>)----|-^-0-----(0)----|------*|
|-^0--^<12>------------|-^<7>-----------|------*|
|-^0--^<12>------------|-^<7>-----------|------*|
|----------------------|----------------|------*|
|----------------------|----------------|------*|
|----------------------|----------------|------*|


Duration Legend
---------------
W - whole; H - half; Q - quarter; E - 8th; S - 16th; T - 32nd; X - 64th; a - acciaccatura
+ - note tied to previous; . - note dotted; .. - note double dotted
Uncapitalized letters represent notes that are staccato (1/2 duration)
Irregular groupings are notated above the duration line
Duration letters will always appear directly above the note/fret number it represents the
duration for.  Duration letters with no fret number below them represent rests.  Multi-
bar rests are notated in the form Wxn, where n is the number of bars to rest for.  Low
melody durations appear below the staff

Tablature Legend
----------------
 h   - hammer-on
 p   - pull-off
 b   - bend
 pb  - pre-bend
 r   - bend release (if no number after the r, then release immediately)
 /\  - slide into or out of (from/to "nowhere")
 s   - legato slide
 S   - shift slide
  - natural harmonic
[n]  - artificial harmonic
n(n) - tapped harmonic
 ~   - vibrato
 tr  - trill
 T   - tap
 TP  - trem. picking
 PM  - palm muting
\n/  - tremolo bar dip; n = amount to dip
 \n  - tremolo bar down
 n/  - tremolo bar up
/n\  - tremolo bar inverted dip
 =   - hold bend; also acts as connecting device for hammers/pulls
 <>  - volume swell (louder/softer)
 x   - on rhythm slash represents muted slash
 o   - on rhythm slash represents single note slash

Misc Legend
-----------
 |  - bar
||  - double bar
||o - repeat start
o|| - repeat end
*|  - double bar (ending)
 :  - bar (freetime)
 $  - Segno
 &  - Coda
Tempo markers -  = BPM(8/16=s8/s16), where s8 = swing 8ths, s16 = swing 16ths
comments
print report bad tab
4 comments total. Showing first comments.
0 reply
H@rlekin wrote on July 23 2007, 05:37 pm

PERFECT!!!!!!!!!!!!!!!!!

0 reply
mrheaphy wrote on July 28 2009, 10:45 am

great tab, made it real easy to learn such an amazing song
but whats with the letters above the tabs?

0 reply
modfathers wrote on November 23 2009, 06:35 am

it's alrate but its not right because the intro is diffetent there and the solo is wrong and the Chords are to but i might be wrongs its jst not the way the book says

I want to post or [tab]
guest
You may want to rate the tab now too:
select rating
Please do not post tabs as comments. Select "correction" instead!