Oops, an error
Loading. Please wait.

The Violation Bass Tab

2,186 views 9 this week
no commentswrite comment
1 2 3 4 5
please rate
Autoscroll
+/-
esc
set tempo
stop
Contributor
Tuning
B E A D F# B
WARNING: You are trying to view
                                    content from Ultimate-Guitar.com
                                    in an unauthorized application,
                                    which is prohibited.

                                    Please use an official Ultimate
                                    Guitar Tabs application for iPhone,
                                    iPad or Android to access legitimate
                                    chords, guitar, bass, and drum tabs
                                    from Ultimate-Guitar.com database.

                                    Type "ultimate guitar tabs" in Apple
                                    App Store's or Android Market's
                                    search to find the application.
Band: Fleshgod Apocalypse
Song: The Violation
Album: Agony (2011)
Bassist: Paolo Rossi
Tuning: B tuning

Note:
Because the basslines and guitar riffs of this song are basically inaudible I
used the live version to make the tab, so you can be sure this is the correct
way to play the song.

You can see the live video here:
http://www.youtube.com/watch?v=AA3nJTWd_b8

D|----------------------------------------------------------|
A|----------------------------------------------------------|
E|----------------------------------------------------------|
B|-8-7-7-8-7-7-8-7-0--0-0-8-8-8-8-8-0--0-0-8-7-6-7-7--0-0-2-|

D|-------------------------------------------------------------------|
A|-------------------------------------------------------------------|
E|-------------------------------------------------------------------|
B|-8-7-7-8-7-7-8-7-0-0-0-0-0-8-8-8-8-8-0-0-0-0-0-0-8-8-8-7-7-7-6-6-6-|

-----------------------|
-----------------------|
-----------------------|
-6-6-6-6-6-6-2-2-2-2-2-|

D|-------------------------------------------------------------------------|
A|-------------------------------------------------------------------------|
E|-------------7-7-7-7-7-7-6-6-6-6-6-6-3-3-3-5-5-5-7-7-7-7-7-7-------------|
B|-0-0-0-0-0-0-------------------------------------------------5-5-5-7-7-7-|

D|-------------|
A|-------------|
E|-7-----------|
B|---7-8-7-5-3-|

D|-------------------------------------------------------------------------------|
A|-------------------------------------------------------------------------------|
E|-------------------------------------------------------------2-2-2-3-3-3-2-2-2-|
B|-1-0-0-0-0-0-1-0-0-0-0-0-1-0-3-0-1-0-0-0-0-0-3-0-1-0-0-0-0-0-------------------|

---------------------------|
---------------------------|
-1-1-1-1-1-------1-1-1-2---|
-----------3-3-3---------3-|

D|-------------------------------------------------------------|
A|-------------------------------------------------------------|
E|-------------------------------2-3-2---------------2-3-2-1---|
B|-0-0-0-0-0-1-0-0-0-0-0-1-3-1-0-------0-0-0-0-0-1-0---------3-|

Verse 1

D|---------------------------------------|
A|---------------------------------------|
E|---------------------------------------|
B|-0-0-1-0-0-1-0-7h8p7-0-0-1-0-0-1-1-1-1-|

D|-----------------------------------------------------|
A|-----------------------------------------------------|
E|-----------------------------------------------------|
B|-0-0-1-0-0-1-0-7h8p7-0-0-1-0-0-11h12-0-11h12-0-11h12-|

D|---------------------------------------|
A|---------------------------------------|
E|---------------------------------------|
B|-0-0-1-0-0-1-0-7h8p7-0-0-1-0-0-1-1-1-1-|

D|---------------------------------|
A|---------------------------------|
E|---------------------------------|
B|-0-0-1-0-0-1-0-7h8p7-7-7-7-0-3-6-|

D|-----------------------------------------|
A|-----------------------------------------|
E|-----------------------------------------|
B|-0-0-0-0-0-0-0-0-11-11-11-11-11-11-11-11-|

D|-----------------------------------------|
A|-----------------------------------------|
E|-------------------------------6-6-6-6-6-|
B|-0h1p0h1p0-6-6-6-6-6-0h1p0h1p0-----------|

D|-----------------------------------------|
A|-----------------------------------------|
E|-----------------3-3-3-3-3-3-6-6-6-0-0-0-|
B|-0-0-0-0-0-0-0-0-------------------------|

D|-------------------------------------------------------------------------------|
A|-------------------------------------------------------------------------------|
E|-------------------------------------------------------------2-2-2-3-3-3-2-2-2-|
B|-1-0-0-0-0-0-1-0-0-0-0-0-1-0-3-0-1-0-0-0-0-0-3-0-1-0-0-0-0-0-------------------|

---------------------------|
---------------------------|
-1-1-1-1-1-------1-1-1-2---|
-----------3-3-3---------3-|

D|---------------------------------------------------------------|
A|---------------------------------------------------------------|
E|-------------------------------2-3-2---------------2-3-2-1---1-|
B|-0-0-0-0-0-1-0-0-0-0-0-1-3-1-0-------0-0-0-0-0-1-0---------3---|

Verse 2

D|---------------------------------------|
A|---------------------------------------|
E|---------------------------------------|
B|-0-0-1-0-0-1-0-7h8p7-0-0-1-0-0-1-1-1-1-|

D|-----------------------------------------------------|
A|-----------------------------------------------------|
E|-----------------------------------------------------|
B|-0-0-1-0-0-1-0-7h8p7-0-0-1-0-0-11h12-0-11h12-0-11h12-|

D|---------------------------------------|
A|---------------------------------------|
E|---------------------------------------|
B|-0-0-1-0-0-1-0-7h8p7-0-0-1-0-0-1-1-1-1-|

D|--------------------------------------|
A|--------------------------------------|
E|--------------------------------------|
B|-0-0-1-0-0-1-0-7h8p7-7-7-7-0-3-6-3--0-|

D|---------------------------------|
A|---------------------------------|
E|-----------------9-9-9-9-9-9-7-6-|
B|-7-7-7-7-7-7-7-7-----------------|

Chorus

D|---------------------------------------------------------------------|
A|---------------------------------------------------------------------|
E|-7-7-7-7-7-7-7-7-----------------------------------------------------|
B|-----------------4-5-5-5-5-5-5-5-5-7-8-8-8-8-8-8-8-8-7-7-7-7-7-7-7-7-|

-----------------------------------------------------------------------------|
-----------------------------------------------------------------------------|
-6-6-6-6-6---------------------------------9-9-9-9-9-9-7-7-7-6-6-6-6-6-6-6-6-|
-----------0-0-0-0-0-0-0-0-7-7-7-7-7-7-7-7-----------------------------------|

---------------------------------------------------------------------|
---------------------------------------------------------------------|
-7-7-7-7-7-----------------------------------------------------------|
-----------4-4-4-4-4-4-4-4-5-5-5-5-5-5-5-5-6-6-6-6-6-6-6-6-7-7-7-7-7-|

D|--------------------------------------|
A|--------------------------------------|
E|-------------7-6-6-6-6-6-10-9-9-9-9-9-|
B|-8-7-7-7-7-7--------------------------|

D|-------------------------------------------------------------------|
A|-------------------------------------------------------------------|
E|-------------------------------------------------------------------|
B|-8-7-7-8-7-7-8-7-0-0-0-0-0-8-8-8-8-8-0-0-0-0-0-0-8-8-8-7-7-7-6-6-6-|

-----------------------|
-----------------------|
-----------------------|
-6-6-6-6-6-6-2-2-2-2-2-|

D|-------------------------------------------------------------------------|
A|-------------------------------------------------------------------------|
E|-------------7-7-7-7-7-7-6-6-6-6-6-6-3-3-3-5-5-5-7-7-7-7-7-7-------------|
B|-0-0-0-0-0-0-------------------------------------------------5-5-5-7-7-7-|

D|-------------|
A|-------------|
E|-7-----------|
B|---7-8-7-5-3-|

D|-------------------------------------------------------------------------------|
A|-------------------------------------------------------------------------------|
E|-------------------------------------------------------------2-2-2-3-3-3-2-2-2-|
B|-1-0-0-0-0-0-1-0-0-0-0-0-1-0-3-0-1-0-0-0-0-0-3-0-1-0-0-0-0-0-------------------|

---------------------------|
---------------------------|
-1-1-1-1-1-------1-1-1-2---|
-----------3-3-3---------3-|

D|-------------------------------------------------------------|
A|-------------------------------------------------------------|
E|-------------------------------2-3-2---------------2-3-2-1---|
B|-0-0-0-0-0-1-0-0-0-0-0-1-3-1-0-------0-0-0-0-0-1-0---------3-|

Verse 3

D|---------------------------------------|
A|---------------------------------------|
E|---------------------------------------|
B|-0-0-1-0-0-1-0-7h8p7-0-0-1-0-0-1-1-1-1-|

D|-----------------------------------------------------|
A|-----------------------------------------------------|
E|-----------------------------------------------------|
B|-0-0-1-0-0-1-0-7h8p7-0-0-1-0-0-11h12-0-11h12-0-11h12-|

D|---------------------------------------|
A|---------------------------------------|
E|---------------------------------------|
B|-0-0-1-0-0-1-0-7h8p7-0-0-1-0-0-1-1-1-1-|

D|-----------------------------------|
A|-----------------------------------|
E|-----------------------------------|
B|-0-0-1-0-0-1-0-7h8p7-7-7-7-0-3-6-7-|

Guitar solo

D|---------------------------------------------------------------------|
A|---------------------------------------------------------------------|
E|---------------------------------------------------------------------|
B|-0-7-3-0-7-3-0-0-0-0-7-3-0-7-3-0-0-0-0-6-3-0-6-3-0-0-0-0-6-3-0-6-3-0-|

D|---------------------------------------------------------------|
A|---------------------------------------------------------------|
E|---------7-----6-----3-----2-----------------------------------|
B|-0-0-0-0---9-0---8-0---5-0---4-0-2-3-0-6-3-0-6-3-0-3-6-0-6-9-0-|

D|-------------------------------------------------------------------------|
A|-------------------------------------------------------------------------|
E|-------------------------------------------------------------------------|
B|-0-0-0-0-0-0-0-0-0-0-0-0-0-0-0-0-0-0-8-8-8-8-8-8-8-8-8-8-8-8-8-8-8-8-8-8-|

D|------------------------------------------------------------------|
A|------------------------------------------------------------------|
E|-6-6-6-6-6-7-7-7-7-7-3-3-3-3-3-2-2-2-2-2-1-1-1-1-1-2-2-2-2-2-6--6-|
B|------------------------------------------------------------------|

Verse 4

D|---------------------------------------|
A|---------------------------------------|
E|---------------------------------------|
B|-0-0-1-0-0-1-0-7h8p7-0-0-1-0-0-1-1-1-1-|

D|-----------------------------------------------------|
A|-----------------------------------------------------|
E|-----------------------------------------------------|
B|-0-0-1-0-0-1-0-7h8p7-0-0-1-0-0-11h12-0-11h12-0-11h12-|

D|---------------------------------------|
A|---------------------------------------|
E|---------------------------------------|
B|-0-0-1-0-0-1-0-7h8p7-0-0-1-0-0-1-1-1-1-|

D|---------------------------------|
A|---------------------------------|
E|---------------------------------|
B|-0-0-1-0-0-1-0-7h8p7-7-7-7-0-3-6-|

D|-----------------------------------------|
A|-----------------------------------------|
E|-----------------------------------------|
B|-0-0-0-0-0-0-0-0-11-11-11-11-11-11-11-11-|

D|-----------------------------------------|
A|-----------------------------------------|
E|-------------------------------6-6-6-6-6-|
B|-0h1p0h1p0-6-6-6-6-6-0h1p0h1p0-----------|

D|-------------------------------------------|
A|-------------------------------------------|
E|-----------------3-3-3-3-3-3-6-6-6-0-0-0---|
B|-0-0-0-0-0-0-0-0-------------------------0-|

D|---------------------------------|
A|---------------------------------|
E|-----------------9-9-9-9-9-9-7-6-|
B|-7-7-7-7-7-7-7-7-----------------|

Chorus

D|---------------------------------------------------------------------|
A|---------------------------------------------------------------------|
E|-7-7-7-7-7-7-7-7-----------------------------------------------------|
B|-----------------4-5-5-5-5-5-5-5-5-7-8-8-8-8-8-8-8-8-7-7-7-7-7-7-7-7-|

-----------------------------------------------------------------------------|
-----------------------------------------------------------------------------|
-6-6-6-6-6---------------------------------9-9-9-9-9-9-7-7-7-6-6-6-6-6-6-6-6-|
-----------0-0-0-0-0-0-0-0-7-7-7-7-7-7-7-7-----------------------------------|

---------------------------------------------------------------------|
---------------------------------------------------------------------|
-7-7-7-7-7-----------------------------------------------------------|
-----------4-4-4-4-4-4-4-4-5-5-5-5-5-5-5-5-6-6-6-6-6-6-6-6-7-7-7-7-7-|

D|--------------------------------------|
A|--------------------------------------|
E|-------------7-6-6-6-6-6-10-9-9-9-9-9-|
B|-8-7-7-7-7-7--------------------------|

Outro

D|-------------------------------------------------------------------|
A|-------------------------------------------------------------------|
E|-------------------------------------------------------------------|
B|-8-7-7-8-7-7-8-7-0-0-0-0-0-8-8-8-8-8-0-0-0-0-0-0-8-8-8-7-7-7-6-6-6-|

-----------------------|
-----------------------| x2
-----------------------|
-6-6-6-6-6-6-2-2-2-2-2-|

D|-------------------------------------------------------------------------|
A|-------------------------------------------------------------------------|
E|-------------7-7-7-7-7-7-6-6-6-6-6-6-3-3-3-5-5-5-7-7-7-7-7-7-------------|
B|-0-0-0-0-0-0-------------------------------------------------5-5-5-7-7-7-|

D|------------------|
A|------------------|
E|-7----------------|
B|---7-8-7-5-3--1-0-|

Legend
------
| h = hammer-on
| p = pull-off
comments
We did not receive enough feedback on this tab! Please rate:
print report bad tab
1 2 3 4 5
I want to post or [tab]
guest
You may want to rate the tab now too:
select rating
Please do not post tabs as comments. Select "correction" instead!