Oops, an error
Loading. Please wait.

Angel Tab

67 views 1 this week
no commentswrite comment
1 2 3 4 5
excellent!
x 1
Autoscroll
+/-
esc
set tempo
stop
Contributor
Difficulty
intermediate
WARNING: You are trying to view
                                    content from Ultimate-Guitar.com
                                    in an unauthorized application,
                                    which is prohibited.

                                    Please use an official Ultimate
                                    Guitar Tabs application for iPhone,
                                    iPad or Android to access legitimate
                                    chords, guitar, bass, and drum tabs
                                    from Ultimate-Guitar.com database.

                                    Type "ultimate guitar tabs" in Apple
                                    App Store's or Android Market's
                                    search to find the application.
Tabbed by: Joshua Garcia (joshuag523@aol.com)

Tabs for the song: Angel by Flight 409
Please rate and let me know if you have any corrections. Thank you.


Tuning: Standard (E A D G B E)


Intro
Guitar 1:
E||------------------------------------------------|---------------------------------------|
B||------0--0--------0--00------0--0---------------|------0--0--------0--00------0--00-----|
G||------0--0--------0--00------0--0-----0--0---0--|------0--0--------0--00------0--00--0--|
D||--5-5-5--5---22-2-2--22------x--x--44-4--4h5-4--|--5-5-5--5---22-2-2--22------x--xx--4--|
A||--7-7-7--7---33-3-3--33--5-5-5--5--55-5--5---5--|--7-7-7--7---33-3-3--33--5-5-5--55--5--|
E||-------------------------3-3-3--3---------------|-------------------------3-3-3--33-----|
     .          ..          .         ..              .          ..          .


Verse
Guitar 1:
E||------------------------------------------------|---------------------------------------|
B||------0--0--------0--00------0--0---------------|------0--0--------0--00------0--00-----|
G||------0--0--------0--00------0--0-----0--0---0--|------0--0--------0--00------0--00--0--|
D||--5-5-5--5---22-2-2--22------x--x--44-4--4h5-4--|--5-5-5--5---22-2-2--22------x--xx--4--| x2
A||--7-7-7--7---33-3-3--33--5-5-5--5--55-5--5---5--|--7-7-7--7---33-3-3--33--5-5-5--55--5--|
E||-------------------------3-3-3--3---------------|-------------------------3-3-3--33-----|
     .          ..          .         ..              .          ..          .


Guitar 2:
E||---------------|
B||---------'12~--|
G||--'12~---------|
D||---------------|
A||---------------|
E||---------------|



Pre-Verse
Guitar 1:
E||--------------------------------------------------------------------|
B||--------------------------------------------------------------------|
G||--12--121212--121212--121212--121211--111111--111111--111111--1111--|
D||--x---x-x-x---x-x-x---x-x-x---x-x-x---x-x-x---x-x-x---x-x-x---x-x---|
A||--10--101010--101010--101010--10109---9-9-9---9-9-9---9-9-9---9-9---|
E||--------------------------------------------------------------------|


E||--------------------------------------------------------|
B||--------------------------------------------------------|
G||--9--999--999--999--9911--111111--111111--111111--1111--|
D||--x--xxx--xxx--xxx--xxx---x-x-x---x-x-x---x-x-x---x-x---|
A||--7--777--777--777--779---9-9-9---9-9-9---9-9-9---9-9---|
E||--------------------------------------------------------|


Guitar 2:
E||------------------------------------------------------------------------------------|
B||------------------------------------------------------------------------------------|
G||--9--999--999--999--997--777--777--777--775--555--555--555--557--777--777--777--77--|
D||--9--999--999--999--997--777--777--777--775--555--555--555--557--777--777--777--77--|
A||--7--777--777--777--775--555--555--555--553--333--333--333--335--555--555--555--55--|
E||------------------------------------------------------------------------------------|



Chorus
Guitar 1:
E||--7-----------------10~---------------------|--7-----------------10~------------------|
B||----8-----8-10-8-----------8----7-10-8-7h8--|----8-----8-10-8-----------8----7-10-8~--|
G||------0~---------0~----------0~-------------|------0~---------0~----------0~----------|
D||--------------------------------------------|-----------------------------------------|
A||--------------------------------------------|-----------------------------------------|
E||--------------------------------------------|-----------------------------------------|


Guitar 2:
E||--------------------------------------------------|
B||--------------------------------------------------|
G||--4~----------5~----------------------------------|
D||--4~----------5~----------5~----------4~----------| x2
A||--2~----------3~----------5~----------4~----------|
E||--------------------------3~----------2~----------|



Verse
Guitar 1:
E||------------------------------------------------|---------------------------------------|
B||------0--0--------0--00------0--0---------------|------0--0--------0--00------0--00-----|
G||------0--0--------0--00------0--0-----0--0---0--|------0--0--------0--00------0--00--0--|
D||--5-5-5--5---22-2-2--22------x--x--44-4--4h5-4--|--5-5-5--5---22-2-2--22------x--xx--4--| x2
A||--7-7-7--7---33-3-3--33--5-5-5--5--55-5--5---5--|--7-7-7--7---33-3-3--33--5-5-5--55--5--|
E||-------------------------3-3-3--3---------------|-------------------------3-3-3--33-----|
     .          ..          .         ..              .          ..          .


Guitar 2:
E||---------------|
B||---------'12~--|
G||--'12~---------|
D||---------------|
A||---------------|
E||---------------|



Pre-Verse
Guitar 1:
E||--------------------------------------------------------------------|
B||--------------------------------------------------------------------|
G||--12--121212--121212--121212--121211--111111--111111--111111--1111--|
D||--x---x-x-x---x-x-x---x-x-x---x-x-x---x-x-x---x-x-x---x-x-x---x-x---|
A||--10--101010--101010--101010--10109---9-9-9---9-9-9---9-9-9---9-9---|
E||--------------------------------------------------------------------|


E||--------------------------------------------------------|
B||--------------------------------------------------------|
G||--9--999--999--999--9911--111111--111111--111111--1111--|
D||--x--xxx--xxx--xxx--xxx---x-x-x---x-x-x---x-x-x---x-x---|
A||--7--777--777--777--779---9-9-9---9-9-9---9-9-9---9-9---|
E||--------------------------------------------------------|


Guitar 2:
E||------------------------------------------------------------------------------------|
B||------------------------------------------------------------------------------------|
G||--9--999--999--999--997--777--777--777--775--555--555--555--557--777--777--777--77--|
D||--9--999--999--999--997--777--777--777--775--555--555--555--557--777--777--777--77--|
A||--7--777--777--777--775--555--555--555--553--333--333--333--335--555--555--555--55--|
E||------------------------------------------------------------------------------------|



Chorus
Guitar 1:
E||--7-----------------10~---------------------|--7-----------------10~--------------------|
B||----8-----8-10-8-----------8----7-10-8-7h8--|----8-----8-10-8-----------8----7-10-8-7~--|
G||------0~---------0~----------0~-------------|------0~---------0~----------0~------------|
D||--------------------------------------------|-------------------------------------------|
A||--------------------------------------------|-------------------------------------------|
E||--------------------------------------------|-------------------------------------------|


Guitar 2:
E||--------------------------------------------------|
B||--------------------------------------------------|
G||--4~----------5~----------------------------------|
D||--4~----------5~----------5~----------4~----------| x2
A||--2~----------3~----------5~----------4~----------|
E||--------------------------3~----------2~----------|



Bridge
Guitar 1:
E||---------------------------|---------------------------|
B||---------------------------|---------------------------|
G||--12~----------9~-----11~--|--12~----------9~-----11~--|
D||--x------------x------x----|--x------------x------x----|
A||--10~----------7~-----9-~--|--10~----------7~-----9-~--|
E||---------------------------|---------------------------|


Guitar 2:
E||---------------------------|---------------------------|
B||---------------------------|---------------------------|
G||--9~-----------5~-----7~---|--9~-----------5~-----7~---|
D||--9~-----------5~-----7~---|--9~-----------5~-----7~---|
A||--7~-----------3~-----5~---|--7~-----------3~-----5~---|
E||---------------------------|---------------------------|



Guitar 1:
E||--------------------------------------------------------------|
B||--------------------------------------------------------------|
G||--12--121212--121212--121212--12129--999--9911--111111--1111--|
D||--x---x-x-x---x-x-x---x-x-x---x-x-x--xxx--xxx---x-x-x---x-x---|
A||--10--101010--101010--101010--10107--777--779---9-9-9---9-9---|
E||--------------------------------------------------------------|


E||----------------------------------------------|
B||----------------------------------------------|
G||--12--121212--121212--121212--1212--9-----11--|
D||--x---x-x-x---x-x-x---x-x-x---x-x---x-----x---|
A||--10--101010--101010--101010--1010--7-----9---|
E||----------------------------------------------|


Guitar 2:
E||--------------------------------------------|
B||--------------------------------------------|
G||--9--999--999--999--995--555--557--777--77--|
D||--9--999--999--999--995--555--557--777--77--|
A||--7--777--777--777--773--333--335--555--55--|
E||--------------------------------------------|


E||---------------------------------|
B||---------------------------------|
G||--9--999--999--999--99--5-----7--|
D||--9--999--999--999--99--5-----7--|
A||--7--777--777--777--77--3-----5--|
E||---------------------------------|


Guitar 3:
E||-----------------------------------------------------------|
B||----------------------------12------------------12---------|
G||--9--12--11------9--12--11------9--12--11--------------11--|
D||-------------12----------------------------12--------------|
A||-----------------------------------------------------------|
E||-----------------------------------------------------------|



Pre-Verse
Guitar 1:
E||--------------------------------------------------------------------|
B||--------------------------------------------------------------------|
G||--12--121212--121212--121212--121211--111111--111111--111111--1111--|
D||--x---x-x-x---x-x-x---x-x-x---x-x-x---x-x-x---x-x-x---x-x-x---x-x---|
A||--10--101010--101010--101010--10109---9-9-9---9-9-9---9-9-9---9-9---|
E||--------------------------------------------------------------------|


E||--------------------------------------------------------|
B||--------------------------------------------------------|
G||--9--999--999--999--9911--111111--111111--111111--1111--|
D||--x--xxx--xxx--xxx--xxx---x-x-x---x-x-x---x-x-x---x-x---|
A||--7--777--777--777--779---9-9-9---9-9-9---9-9-9---9-9---|
E||--------------------------------------------------------|


Guitar 2:
E||------------------------------------------------------------------------------------|
B||------------------------------------------------------------------------------------|
G||--9--999--999--999--997--777--777--777--775--555--555--555--557--777--777--777--77--|
D||--9--999--999--999--997--777--777--777--775--555--555--555--557--777--777--777--77--|
A||--7--777--777--777--775--555--555--555--553--333--333--333--335--555--555--555--55--|
E||------------------------------------------------------------------------------------|



Chorus
Guitar 1:
E||--7-----------------10~---------------------|
B||----8-----8-10-8-----------8----7-10-8-7h8--|
G||------0~---------0~----------0~-------------|
D||--------------------------------------------| x4
A||--------------------------------------------|
E||--------------------------------------------|


Guitar 2:
E||--------------------------------------------------|
B||--------------------------------------------------|
G||--4~----------5~----------------------------------|
D||--4~----------5~----------5~----------4~----------| x4
A||--2~----------3~----------5~----------4~----------|
E||--------------------------3~----------2~----------|



Outro
Guitar 1:
E||--7-----------------10~----------------------------|
B||----8-----8-10-8-----------8----7-10-8-7h8-(7h8~)--|
G||------0~---------0~----------0~--------------------|
D||---------------------------------------------------| x2
A||---------------------------------------------------|
E||---------------------------------------------------|


Guitar 2:
E||------|
B||------|
G||------|
D||--2~--|
A||--2~--|
E||--0~--|





Tablature Legend
----------------
 h   hammer-on
 p   pull-off
 b   bend
 pb  pre-bend
 r   release bend
 ~   hold / vibrato
 .   palm mute
 /   slide up
 \   slide down
 *   pinch harmonic
 '   natural harmonic
 x   mute note
 T   tap
comments
We did not receive enough feedback on this tab! Please rate:
print report bad tab
1 2 3 4 5
I want to post or [tab]
guest
You may want to rate the tab now too:
select rating
Please do not post tabs as comments. Select "correction" instead!