Oops, an error
Loading. Please wait.

Low Tab

ver2
ver2
More versions @911Tabs.com
13,114 views 1 this week
no commentswrite comment
1 2 3 4 5
not so good
x 3
Autoscroll
+/-
esc
set tempo
stop
Contributor
Difficulty
intermediate
WARNING: You are trying to view
                                    content from Ultimate-Guitar.com
                                    in an unauthorized application,
                                    which is prohibited.

                                    Please use an official Ultimate
                                    Guitar Tabs application for iPhone,
                                    iPad or Android to access legitimate
                                    chords, guitar, bass, and drum tabs
                                    from Ultimate-Guitar.com database.

                                    Type "ultimate guitar tabs" in Apple
                                    App Store's or Android Market's
                                    search to find the application.
Here is the main riff play throughout most of the song


e|----------6-6-6-7-6-7-6-6-5-5-------------------------------|
b|----4-4-4-----------------------7-6-------------------------|
g|------------------------------------------------------------|
d|------------------------------------------------------------|
a|------------------------------------------------------------|
e|------------------------------------------------------------|


And The chords are:

e|------------------------------------------------------------ |e
b|----------------------------------------------------------- -|b
g|--8-------------- 11----13-----------------------------------|g
d|--8------11------11----13---------------------------------- -|d
a|--6------11------ 9-----11-----------------------------------|a
e|------- --9--------------------------------------------------|e
      Eb              Db             Gb           Ab


                                Eb
Shawty had them Apple Bottom Jeans [Jeans]
Eb
Boots with the fur [With the fur]
Eb
The whole club was lookin at her
Db
She hit the flo [She hit the flo]
Db
Next thing you know
                     Gb                        Ab
Shawty got low low low low low low low low


And repeat that chord pattern throughout the song
comments
We did not receive enough feedback on this tab! Please rate:
1 2 3 4 5
I want to post or [tab]
guest
You may want to rate the tab now too:
select rating
Please do not post tabs as comments. Select "correction" instead!