Oops, an error
Loading. Please wait.

Death Valley Queen Bass Tab

ver2
ver2

Whole song

Interactive

More versions @911Tabs.com
494 views 1 this week
no commentswrite comment
1 2 3 4 5
please rate
add to favorites
launch autoscroll
font size
0
reset
Tab Pro tools
  • play this tab
  • loop segment
  • change instrument
  • show fretboard
  • metronome
Autoscroll
+/-
esc
set tempo
stop
Contributor
WARNING: You are trying to view
                                    content from Ultimate-Guitar.com
                                    in an unauthorized application,
                                    which is prohibited.

                                    Please use an official Ultimate
                                    Guitar Tabs application for iPhone,
                                    iPad or Android to access legitimate
                                    chords, guitar, bass, and drum tabs
                                    from Ultimate-Guitar.com database.

                                    Type "ultimate guitar tabs" in Apple
                                    App Store's or Android Market's
                                    search to find the application.
#----------------------------------PLEASE NOTE---------------------------------#
#This file is the author's own work and represents their interpretation of the #
#song. You may only use this file for private study, scholarship, or research. #
#------------------------------------------------------------------------------#

DEATH VALLEY QUEEN (Bassline)
As recorded by Flogging Molly
(From the 2002 Album DRUNKEN LULLABIES)

Transcribed by Robbie Annese
	

Words by Dave King Music by Flogging Molly

G
0 0 2 3
	
D
x 0 0 2
	
C
5 5 3 0

Gtr I (E A D G) - 'Nathen Maxwell'
Gtr II (G D A E) - 'Robert Schmidt'

 Intro
  Q=156
 6/8
  Gtr I
  H.           H.            H.          H.
|------------|-------------|-----------|------------|
|------------|-------------|-----------|------------|
|------------|-5-----------|-----------|-3----------|
|-3----------|-------------|-3---------|------------|
|
| Gtr II
|                                        TP
| Q   E Q.     Q   E E E E   Q   Q  Q    Q   Q  E E
|------------|-------------|-----------|------------|
|------------|---------2-2-|-2---0--2--|-3---3--5-3-|
|-5---4-5----|-0---0-0-----|-----------|------------|
|------------|-------------|-----------|------------|


  H.          H.           H.          H.
|-----------|------------|-----------|--------------|
|-----------|------------|-----------|--------------|
|-----------|-5----------|-----------|-5------------|
|-3---------|------------|-3---------|--------------|
|
|             TP
| Q   Q  Q    Q   Q  E E   Q   Q  Q    E  E Q  Q
|-----------|------------|-----------|--------------|
|-2---0-----|------------|-----------|-0--0-2--0----|
|--------5--|-5---5--5-5-|-5---4--5--|--------------|
|-----------|------------|-----------|--------------|


  H.           H.            H.          H.
|------------|-------------|-----------|------------|
|------------|-------------|-----------|------------|
|------------|-5-----------|-----------|-3----------|
|-3----------|-------------|-3---------|------------|
|
|                                        TP
| Q   E Q.     Q   E E E E   Q   Q  Q    Q   Q  E E
|------------|-------------|-----------|------------|
|------------|---------2-2-|-2---0--2--|-3---3--5-3-|
|-5---4-5----|-0---0-0-----|-----------|------------|
|------------|-------------|-----------|------------|


  H.          H.          H       +E  E   H.
|-----------|-----------|---------------|-------|
|-----------|-----------|---------------|-------|
|-----------|-5---------|---------------|-------|
|-3---------|-----------|-3-------(3)-3-|-3-----|
|
| Q   Q  Q    Q   Q  Q    E E E E  E  E   H.
|-----------|-----------|---------------|-3-----|
|-2---0-----|-0---2--0--|---0-2-0--2--5-|-------|
|--------5--|-----------|-5-------------|-------|
|-----------|-----------|---------------|-------|


 Verse
  Gtr I
  H.        H.        H.        H.        H.        H.        H.        H.
|---------|---------|---------|---------|---------|---------|---------|-------|
|---------|---------|---------|---------|---------|---------|---------|-------|
|---------|-5-------|---------|-3-------|---------|-5-------|---------|-5-----|
|-3-------|---------|-3-------|---------|-3-------|---------|-3-------|-------|


  H.        H.        H.        H.
|---------|---------|---------|---------|
|---------|---------|---------|---------|
|---------|-5-------|---------|-3-------|
|-3-------|---------|-3-------|---------|


  H.        H.        H    +E  E   H.
|---------|---------|------------|-------|
|---------|---------|------------|-------|
|---------|-5-------|------------|-------|
|-3-------|---------|-3----(3)-3-|-3-----|


  H.           H.            H.          H.
|------------|-------------|-----------|------------|
|------------|-------------|-----------|------------|
|------------|-5-----------|-----------|-3----------|
|-3----------|-------------|-3---------|------------|
|
| Gtr II
|                                        TP
| Q   E Q.     Q   E E E E   Q   Q  Q    Q   Q  E E
|------------|-------------|-----------|------------|
|------------|---------2-2-|-2---0--2--|-3---3--5-3-|
|-5---4-5----|-0---0-0-----|-----------|------------|
|------------|-------------|-----------|------------|


  H.          H.           H.          H.
|-----------|------------|-----------|--------------|
|-----------|------------|-----------|--------------|
|-----------|-5----------|-----------|-5------------|
|-3---------|------------|-3---------|--------------|
|
|             TP
| Q   Q  Q    Q   Q  E E   Q   Q  Q    E  E Q  Q
|-----------|------------|-----------|--------------|
|-2---0-----|------------|-----------|-0--0-2--0----|
|--------5--|-5---5--5-5-|-5---4--5--|--------------|
|-----------|------------|-----------|--------------|


  H.           H.            H.          H.
|------------|-------------|-----------|------------|
|------------|-------------|-----------|------------|
|------------|-5-----------|-----------|-3----------|
|-3----------|-------------|-3---------|------------|
|
|                                        TP
| Q   E Q.     Q   E E E E   Q   Q  Q    Q   Q  E E
|------------|-------------|-----------|------------|
|------------|---------2-2-|-2---0--2--|-3---3--5-3-|
|-5---4-5----|-0---0-0-----|-----------|------------|
|------------|-------------|-----------|------------|


  H.          H.          H       +E  E   H.
|-----------|-----------|---------------|-------|
|-----------|-----------|---------------|-------|
|-----------|-5---------|---------------|-------|
|-3---------|-----------|-3-------(3)-3-|-3-----|
|
| Q   Q  Q    Q   Q  Q    E E E E  E  E   H.
|-----------|-----------|---------------|-------|
|-2---0-----|-0---2--0--|---0-2-0--2--0-|-------|
|--------5--|-----------|-5-------------|-5-----|
|-----------|-----------|---------------|-------|


 Chorus Part
  D            G             C            D
  H      Q     H.            H      E E   H.
|------------|-------------|------------|-------------|
|------------|-------------|------------|-------------|
|-5------7---|-------------|-3------3-3-|-5-----------|
|------------|-3-----------|------------|-------------|
|
| Q  E E E E   Q   E E E E   Q  E E E E   Q   E E E E
|-2--2-2-2-2-|-3---3-3-3-3-|-0--0-0-0-0-|-2---2-2-2-2-|
|-0--0-0-0-0-|-2---2-2-2-2-|-3--3-3-3-3-|-0---0-0-0-0-|
|-0--0-0-0-0-|-0---0-0-0-0-|-2--2-2-2-2-|-0---0-0-0-0-|
|------------|-0---0-0-0-0-|-5--5-5-5-5-|-------------|


  D            G             C            D
  Q  Q   Q     H.            H      E E   H.
|------------|-------------|------------|----------------|
|------------|-------------|------------|----------------|
|-5--5---7---|-------------|-3------3-3-|-5--------------|
|------------|-3-----------|------------|----------------|
|
| Q  E E E E   Q   E E E E   Q  E E E E   Q   E E E E
|-2--2-2-2-2-|-3---3-3-3-3-|-0--0-0-0-0-|-2---2-2-2-2----|
|-0--0-0-0-0-|-2---2-2-2-2-|-3--3-3-3-3-|-0---0-0-0-0----|
|-0--0-0-0-0-|-0---0-0-0-0-|-2--2-2-2-2-|-0---0-0-0-0----|
|------------|-0---0-0-0-0-|-5--5-5-5-5-|----------------|


  H.           H.            H.          H.
|------------|-------------|-----------|------------|
|------------|-------------|-----------|------------|
|------------|-5-----------|-----------|-3----------|
|-3----------|-------------|-3---------|------------|
|
|                                        TP
| Q   E Q.     Q   E E E E   Q   Q  Q    Q   Q  E E
|------------|-------------|-----------|------------|
|------------|---------2-2-|-2---0--2--|-3---3--5-3-|
|-5---4-5----|-0---0-0-----|-----------|------------|
|------------|-------------|-----------|------------|


  H.          H.          H       +E  E   H.
|-----------|-----------|---------------|-------|
|-----------|-----------|---------------|-------|
|-----------|-5---------|---------------|-------|
|-3---------|-----------|-3-------(3)-3-|-3-----|
|
| Q   Q  Q    Q   Q  Q    E E E E  E  E   H.
|-----------|-----------|---------------|-3-----|
|-2---0-----|-0---2--0--|---0-2-0--2--5-|-------|
|--------5--|-----------|-5-------------|-------|
|-----------|-----------|---------------|-------|


  H.           H.            H.          H.
|------------|-------------|-----------|------------|
|------------|-------------|-----------|------------|
|------------|-5-----------|-----------|-3----------|
|-3----------|-------------|-3---------|------------|
|
|                                        TP
| Q   E Q.     Q   E E E E   Q   Q  Q    Q   Q  E E
|------------|-------------|-----------|------------|
|------------|---------2-2-|-2---0--2--|-3---3--5-3-|
|-5---4-5----|-0---0-0-----|-----------|------------|
|------------|-------------|-----------|------------|


  H.          H.          H       +E  E   H.
|-----------|-----------|---------------|-------|
|-----------|-----------|---------------|-------|
|-----------|-5---------|---------------|-------|
|-3---------|-----------|-3-------(3)-3-|-3-----|
|
| Q   Q  Q    Q   Q  Q    E E E E  E  E   H.
|-----------|-----------|---------------|-3-----|
|-2---0-----|-0---2--0--|---0-2-0--2--5-|-------|
|--------5--|-----------|-5-------------|-------|
|-----------|-----------|---------------|-------|


 Verse
  H.           H.            H.          H.
|------------|-------------|-----------|------------|
|------------|-------------|-----------|------------|
|------------|-5-----------|-----------|-3----------|
|-3----------|-------------|-3---------|------------|
|
|                                        TP
| Q   E Q.     Q   E E E E   Q   Q  Q    Q   Q  E E
|------------|-------------|-----------|------------|
|------------|---------2-2-|-2---0--2--|-3---3--5-3-|
|-5---4-5----|-0---0-0-----|-----------|------------|
|------------|-------------|-----------|------------|


  H.          H.           H.          H.
|-----------|------------|-----------|--------------|
|-----------|------------|-----------|--------------|
|-----------|-5----------|-----------|-5------------|
|-3---------|------------|-3---------|--------------|
|
|             TP
| Q   Q  Q    Q   Q  E E   Q   Q  Q    E  E Q  Q
|-----------|------------|-----------|--------------|
|-2---0-----|------------|-----------|-0--0-2--0----|
|--------5--|-5---5--5-5-|-5---4--5--|--------------|
|-----------|------------|-----------|--------------|


  H.           H.            H.          H.
|------------|-------------|-----------|------------|
|------------|-------------|-----------|------------|
|------------|-5-----------|-----------|-3----------|
|-3----------|-------------|-3---------|------------|
|
|                                        TP
| Q   E Q.     Q   E E E E   Q   Q  Q    Q   Q  E E
|------------|-------------|-----------|------------|
|------------|---------2-2-|-2---0--2--|-3---3--5-3-|
|-5---4-5----|-0---0-0-----|-----------|------------|
|------------|-------------|-----------|------------|


  H.          H.          H       +E  E   H.
|-----------|-----------|---------------|-------|
|-----------|-----------|---------------|-------|
|-----------|-5---------|---------------|-------|
|-3---------|-----------|-3-------(3)-3-|-3-----|
|
| Q   Q  Q    Q   Q  Q    E E E E  E  E   H.
|-----------|-----------|---------------|-3-----|
|-2---0-----|-0---2--0--|---0-2-0--2--5-|-------|
|--------5--|-----------|-5-------------|-------|
|-----------|-----------|---------------|-------|


 Chorus Part
  D            G             C            D
  H      Q     H.            H      E E   H.
|------------|-------------|------------|-------------|
|------------|-------------|------------|-------------|
|-5------7---|-------------|-3------3-3-|-5-----------|
|------------|-3-----------|------------|-------------|
|
| Q  E E E E   Q   E E E E   Q  E E E E   Q   E E E E
|-2--2-2-2-2-|-3---3-3-3-3-|-0--0-0-0-0-|-2---2-2-2-2-|
|-0--0-0-0-0-|-2---2-2-2-2-|-3--3-3-3-3-|-0---0-0-0-0-|
|-0--0-0-0-0-|-0---0-0-0-0-|-2--2-2-2-2-|-0---0-0-0-0-|
|------------|-0---0-0-0-0-|-5--5-5-5-5-|-------------|


  D            G             C            D
  Q  Q   Q     H.            H      E E   H.
|------------|-------------|------------|----------------|
|------------|-------------|------------|----------------|
|-5--5---7---|-------------|-3------3-3-|-5--------------|
|------------|-3-----------|------------|----------------|
|
| Q  E E E E   Q   E E E E   Q  E E E E   Q   E E E E
|-2--2-2-2-2-|-3---3-3-3-3-|-0--0-0-0-0-|-2---2-2-2-2----|
|-0--0-0-0-0-|-2---2-2-2-2-|-3--3-3-3-3-|-0---0-0-0-0----|
|-0--0-0-0-0-|-0---0-0-0-0-|-2--2-2-2-2-|-0---0-0-0-0----|
|------------|-0---0-0-0-0-|-5--5-5-5-5-|----------------|


  H.           H.            H.          H.
|------------|-------------|-----------|------------|
|------------|-------------|-----------|------------|
|------------|-5-----------|-----------|-3----------|
|-3----------|-------------|-3---------|------------|
|
|                                        TP
| Q   E Q.     Q   E E E E   Q   Q  Q    Q   Q  E E
|------------|-------------|-----------|------------|
|------------|---------2-2-|-2---0--2--|-3---3--5-3-|
|-5---4-5----|-0---0-0-----|-----------|------------|
|------------|-------------|-----------|------------|


  H.          H.          H.             Q   Q  Q
|-----------|-----------|--------------|-------------|
|-----------|-----------|--------------|-------------|
|-----------|-5---------|--------------|-----2--3----|
|-3---------|-----------|-3------------|-3-----------|
|
| Q   Q  Q    Q   Q  Q    E  E E E E E   H.
|-----------|-----------|--------------|-3-----------|
|-2---0-----|-0---2--0--|----0-2-0-2-5-|-------------|
|--------5--|-----------|-5------------|-------------|
|-----------|-----------|--------------|-------------|


 Fiddle Solo
  H.        H.        H.        Q   Q  Q
|---------|---------|---------|-----------|
|---------|---------|---------|--------4--|
|-5-------|-5-------|-5-------|-5---7-----|
|---------|---------|---------|-----------|
|
| TP        TP        TP        TP
| H.        H.        H.        H.
|-2-------|-2-------|-2-------|-2---------|
|-0-------|-0-------|-0-------|-0---------|
|-0-------|-0-------|-0-------|-0---------|
|-2-------|-2-------|-2-------|-2---------|


  G            D            G            C
  H      Q     H      Q     H      Q     H      Q
|------------|------------|------------|------------|
|-5------5---|------------|-5------5---|------------|
|------------|-5------5---|------------|-3------3---|
|------------|------------|------------|------------|
|
| Q  E E E E   Q  E E E E   Q  E E E E   Q  E E E E
|-3--3-3-3-3-|-2--2-2-2-2-|-3--3-3-3-3-|-0--0-0-0-0-|
|-2--2-2-2-2-|-0--0-0-0-0-|-2--2-2-2-2-|-3--3-3-3-3-|
|-0--0-0-0-0-|-0--0-0-0-0-|-0--0-0-0-0-|-2--2-2-2-2-|
|-0--0-0-0-0-|------------|-0--0-0-0-0-|-5--5-5-5-5-|


  G            D            G            D
  H      Q     H      Q     H      Q     H      Q
|------------|------------|------------|---------------|
|-5------5---|------------|-5------5---|---------------|
|------------|-5------5---|------------|-5------5------|
|------------|------------|------------|---------------|
|
| Q  E E E E   Q  E E E E   Q  E E E E   Q  E E E E
|-3--3-3-3-3-|-2--2-2-2-2-|-3--3-3-3-3-|-2--2-2-2-2----|
|-2--2-2-2-2-|-0--0-0-0-0-|-2--2-2-2-2-|-0--0-0-0-0----|
|-0--0-0-0-0-|-0--0-0-0-0-|-0--0-0-0-0-|-0--0-0-0-0----|
|-0--0-0-0-0-|------------|-0--0-0-0-0-|---------------|


  G            D            G            C
  H      Q     H      Q     H      Q     H      Q
|------------|------------|------------|------------|
|-5------5---|------------|-5------5---|------------|
|------------|-5------5---|------------|-3------3---|
|------------|------------|------------|------------|
|
| Q  E E E E   Q  E E E E   Q  E E E E   Q  E E E E
|-3--3-3-3-3-|-2--2-2-2-2-|-3--3-3-3-3-|-0--0-0-0-0-|
|-2--2-2-2-2-|-0--0-0-0-0-|-2--2-2-2-2-|-3--3-3-3-3-|
|-0--0-0-0-0-|-0--0-0-0-0-|-0--0-0-0-0-|-2--2-2-2-2-|
|-0--0-0-0-0-|------------|-0--0-0-0-0-|-5--5-5-5-5-|


  G            D            G            G
  H      Q     H      Q     H      Q     Q  Q   Q
|------------|------------|------------|---------------|
|-5------5---|------------|-5------5---|-5-------------|
|------------|-5------5---|------------|----2---3------|
|------------|------------|------------|---------------|
|
| Q  E E E E   Q  E E E E   Q  E E E E   Q  E E E E
|-3--3-3-3-3-|-2--2-2-2-2-|-3--3-3-3-3-|-3--3-3-3-3----|
|-2--2-2-2-2-|-0--0-0-0-0-|-2--2-2-2-2-|-2--2-2-2-2----|
|-0--0-0-0-0-|-0--0-0-0-0-|-0--0-0-0-0-|-0--0-0-0-0----|
|-0--0-0-0-0-|------------|-0--0-0-0-0-|-0--0-0-0-0----|


 Different Part
  D             D         C            G            D            D
  H.            q  H      Q  Q   Q     Q  Q   E E   H      Q     H      Q
|-------------|---------|------------|------------|------------|------------|
|-------------|---------|------------|------------|------------|------------|
|-5-----------|-5-------|-3--2---0---|----0---2h3-|-5------5---|-5------5---|
|-------------|---------|------------|-3----------|------------|------------|
|
| Q   E E E E   q  H      Q  E E E E   Q  E E E E   Q  E E E E   Q  E E E E
|-2---2-2-2-2-|-2-------|-0--0-0-0-0-|-3--3-3-3-3-|-2--2-2-2-2-|-2--2-2-2-2-|
|-0---0-0-0-0-|-0-------|-3--3-3-3-3-|-2--2-2-2-2-|-0--0-0-0-0-|-0--0-0-0-0-|
|-0---0-0-0-0-|-0-------|-2--2-2-2-2-|-0--0-0-0-0-|-0--0-0-0-0-|-0--0-0-0-0-|
|-------------|---------|-5--5-5-5-5-|-0--0-0-0-0-|------------|------------|


  D             D         C            G
  H.            q  H      Q  Q   Q     Q  Q   E E
|-------------|---------|------------|------------|
|-------------|---------|------------|------------|
|-5-----------|-5-------|-3--2---0---|----0---2h3-|
|-------------|---------|------------|-3----------|
|
| Q   E E E E   q  H      Q  E E E E   Q  E E E E
|-2---2-2-2-2-|-2-------|-0--0-0-0-0-|-3--3-3-3-3-|
|-0---0-0-0-0-|-0-------|-3--3-3-3-3-|-2--2-2-2-2-|
|-0---0-0-0-0-|-0-------|-2--2-2-2-2-|-0--0-0-0-0-|
|-------------|---------|-5--5-5-5-5-|-0--0-0-0-0-|


  D            D            D7           D7
  H      Q     H      Q     H      Q     Q   Q   Q
|------------|------------|------------|-7---9--11----|
|------------|------------|-7------7---|--------------|
|-5------5---|-5------5---|------------|--------------|
|------------|------------|------------|--------------|
|
| Q  E E E E   Q  E E E E   Q  E E E E   H.
|-2--2-2-2-2-|-2--2-2-2-2-|-2--2-2-2-2-|-2------------|
|-0--0-0-0-0-|-0--0-0-0-0-|-3--3-3-3-3-|-3------------|
|-0--0-0-0-0-|-0--0-0-0-0-|-0--0-0-0-0-|-0------------|
|------------|------------|------------|--------------|


 Breakdown/Buildup?
  G              G               D               D
   H.             +H.             +H.             +H.
|-12-----------|-(12)----------|-(12)----------|-(12)----------|
|--------------|---------------|---------------|---------------|
|--------------|---------------|---------------|---------------|
|--------------|---------------|---------------|---------------|
|
|  Q   E E E E     Q   E E E E     Q   E E E E     Q   E E E E
|--3---3-3-3-3-|---3---3-3-3-3-|---2---2-2-2-2-|---2---2-2-2-2-|
|--2---2-2-2-2-|---2---2-2-2-2-|---0---0-0-0-0-|---0---0-0-0-0-|
|--0---0-0-0-0-|---0---0-0-0-0-|---0---0-0-0-0-|---0---0-0-0-0-|
|--------------|---------------|---------------|---------------|


  G               G               G               G
   +H.             +H.             +H.             +H.
|-(12)----------|-(12)----------|-(12)----------|-(12)-------------|
|---------------|---------------|---------------|------------------|
|---------------|---------------|---------------|------------------|
|---------------|---------------|---------------|------------------|
|
|   Q   E E E E     Q   E E E E     Q   E E E E     Q   E E E E
|---3---3-3-3-3-|---3---3-3-3-3-|---3---3-3-3-3-|---3---3-3-3-3----|
|---2---2-2-2-2-|---2---2-2-2-2-|---2---2-2-2-2-|---2---2-2-2-2----|
|---0---0-0-0-0-|---0---0-0-0-0-|---0---0-0-0-0-|---0---0-0-0-0----|
|---------------|---------------|---------------|------------------|


  G            G            D            D
  Gtr II
  Q  E E E E   Q  E E E E   Q  E E E E   Q  E E E E
|-3--3-3-3-3-|-3--3-3-3-3-|-2--2-2-2-2-|-2--2-2-2-2-|
|-2--2-2-2-2-|-2--2-2-2-2-|-0--0-0-0-0-|-0--0-0-0-0-|
|-0--0-0-0-0-|-0--0-0-0-0-|-0--0-0-0-0-|-0--0-0-0-0-|
|------------|------------|------------|------------|


  G            G            G            G
  Q  E E E E   Q  E E E E   Q  E E E E   Q  E E E E
|-3--3-3-3-3-|-3--3-3-3-3-|-3--3-3-3-3-|-3--3-3-3-3----|
|-2--2-2-2-2-|-2--2-2-2-2-|-2--2-2-2-2-|-2--2-2-2-2----|
|-0--0-0-0-0-|-0--0-0-0-0-|-0--0-0-0-0-|-0--0-0-0-0----|
|------------|------------|------------|---------------|


  G            G            D            D
  Gtr I
  Q  E E E E   Q  E E E E   Q  E E E E   Q  E E E E
|------------|------------|------------|------------|
|-5--5-5-5-5-|-5--5-5-5-5-|------------|------------|
|------------|------------|-5--5-5-5-5-|-5--5-5-5-5-|
|------------|------------|------------|------------|
|
| Gtr II
| Q  E E E E   Q  E E E E   Q  E E E E   Q  E E E E
|-3--3-3-3-3-|-3--3-3-3-3-|-2--2-2-2-2-|-2--2-2-2-2-|
|-2--2-2-2-2-|-2--2-2-2-2-|-0--0-0-0-0-|-0--0-0-0-0-|
|-0--0-0-0-0-|-0--0-0-0-0-|-0--0-0-0-0-|-0--0-0-0-0-|
|------------|------------|------------|------------|


  G            G            C            C
  Q  E E E E   Q  E E E E   Q  E E E E   Q  E E E E
|------------|------------|------------|---------------|
|-5--5-5-5-5-|-5--5-5-5-5-|------------|---------------|
|------------|------------|-3--3-3-3-3-|-3--3-3-3-3----|
|------------|------------|------------|---------------|
|
| Q  E E E E   Q  E E E E   Q  E E E E   Q  E E E E
|-3--3-3-3-3-|-3--3-3-3-3-|-0--0-0-0-0-|-0--0-0-0-0----|
|-2--2-2-2-2-|-2--2-2-2-2-|-3--3-3-3-3-|-3--3-3-3-3----|
|-0--0-0-0-0-|-0--0-0-0-0-|-2--2-2-2-2-|-2--2-2-2-2----|
|------------|------------|-5--5-5-5-5-|-5--5-5-5-5----|


  G            G            D            D
  Q  E E E E   Q  E E E E   Q  E E E E   Q  E E E E
|------------|------------|------------|------------|
|-5--5-5-5-5-|-5--5-5-5-5-|------------|------------|
|------------|------------|-5--5-5-5-5-|-5--5-5-5-5-|
|------------|------------|------------|------------|
|
| Q  E E E E   Q  E E E E   Q  E E E E   Q  E E E E
|-3--3-3-3-3-|-3--3-3-3-3-|-2--2-2-2-2-|-2--2-2-2-2-|
|-2--2-2-2-2-|-2--2-2-2-2-|-0--0-0-0-0-|-0--0-0-0-0-|
|-0--0-0-0-0-|-0--0-0-0-0-|-0--0-0-0-0-|-0--0-0-0-0-|
|------------|------------|------------|------------|


  G            G            G            G
  Q  E E E E   Q  E E E E   Q  E E E E   Q  E E E E
|------------|------------|------------|---------------|
|-5--5-5-5-5-|-5--5-5-5-5-|-5--5-5-5-5-|-5--5-5-5-5----|
|------------|------------|------------|---------------|
|------------|------------|------------|---------------|
|
| Q  E E E E   Q  E E E E   Q  E E E E   Q  E E E E
|-3--3-3-3-3-|-3--3-3-3-3-|-3--3-3-3-3-|-3--3-3-3-3----|
|-2--2-2-2-2-|-2--2-2-2-2-|-2--2-2-2-2-|-2--2-2-2-2----|
|-0--0-0-0-0-|-0--0-0-0-0-|-0--0-0-0-0-|-0--0-0-0-0----|
|------------|------------|------------|---------------|


 Verse
  H.           H.            H.          H.
|------------|-------------|-----------|------------|
|------------|-------------|-----------|------------|
|------------|-5-----------|-----------|-3----------|
|-3----------|-------------|-3---------|------------|
|
|                                        TP
| Q   E Q.     Q   E E E E   Q   Q  Q    Q   Q  E E
|------------|-------------|-----------|------------|
|------------|---------2-2-|-2---0--2--|-3---3--5-3-|
|-5---4-5----|-0---0-0-----|-----------|------------|
|------------|-------------|-----------|------------|


  H.          H.           H.          H.
|-----------|------------|-----------|--------------|
|-----------|------------|-----------|--------------|
|-----------|-5----------|-----------|-5------------|
|-3---------|------------|-3---------|--------------|
|
|             TP
| Q   Q  Q    Q   Q  E E   Q   Q  Q    E  E Q  Q
|-----------|------------|-----------|--------------|
|-2---0-----|------------|-----------|-0--0-2--0----|
|--------5--|-5---5--5-5-|-5---4--5--|--------------|
|-----------|------------|-----------|--------------|


  H.           H.            H.          H.
|------------|-------------|-----------|------------|
|------------|-------------|-----------|------------|
|------------|-5-----------|-----------|-3----------|
|-3----------|-------------|-3---------|------------|
|
|                                        TP
| Q   E Q.     Q   E E E E   Q   Q  Q    Q   Q  E E
|------------|-------------|-----------|------------|
|------------|---------2-2-|-2---0--2--|-3---3--5-3-|
|-5---4-5----|-0---0-0-----|-----------|------------|
|------------|-------------|-----------|------------|


  H.          H.          H       +E  E   H.
|-----------|-----------|---------------|-------|
|-----------|-----------|---------------|-------|
|-----------|-5---------|---------------|-------|
|-3---------|-----------|-3-------(3)-3-|-3-----|
|
| Q   Q  Q    Q   Q  Q    E E E E  E  E   H.
|-----------|-----------|---------------|-3-----|
|-2---0-----|-0---2--0--|---0-2-0--2--5-|-------|
|--------5--|-----------|-5-------------|-------|
|-----------|-----------|---------------|-------|


 Chorus Part
  D            G             C            D
  H      Q     H.            H      E E   H.
|------------|-------------|------------|-------------|
|------------|-------------|------------|-------------|
|-5------7---|-------------|-3------3-3-|-5-----------|
|------------|-3-----------|------------|-------------|
|
| Q  E E E E   Q   E E E E   Q  E E E E   Q   E E E E
|-2--2-2-2-2-|-3---3-3-3-3-|-0--0-0-0-0-|-2---2-2-2-2-|
|-0--0-0-0-0-|-2---2-2-2-2-|-3--3-3-3-3-|-0---0-0-0-0-|
|-0--0-0-0-0-|-0---0-0-0-0-|-2--2-2-2-2-|-0---0-0-0-0-|
|------------|-0---0-0-0-0-|-5--5-5-5-5-|-------------|


  D            G             C            D
  Q  Q   Q     H.            H      E E   H.
|------------|-------------|------------|----------------|
|------------|-------------|------------|----------------|
|-5--5---7---|-------------|-3------3-3-|-5--------------|
|------------|-3-----------|------------|----------------|
|
| Q  E E E E   Q   E E E E   Q  E E E E   Q   E E E E
|-2--2-2-2-2-|-3---3-3-3-3-|-0--0-0-0-0-|-2---2-2-2-2----|
|-0--0-0-0-0-|-2---2-2-2-2-|-3--3-3-3-3-|-0---0-0-0-0----|
|-0--0-0-0-0-|-0---0-0-0-0-|-2--2-2-2-2-|-0---0-0-0-0----|
|------------|-0---0-0-0-0-|-5--5-5-5-5-|----------------|


  H.           H.            H.          H.
|------------|-------------|-----------|------------|
|------------|-------------|-----------|------------|
|------------|-5-----------|-----------|-3----------|
|-3----------|-------------|-3---------|------------|
|
|                                        TP
| Q   E Q.     Q   E E E E   Q   Q  Q    Q   Q  E E
|------------|-------------|-----------|------------|
|------------|---------2-2-|-2---0--2--|-3---3--5-3-|
|-5---4-5----|-0---0-0-----|-----------|------------|
|------------|-------------|-----------|------------|


  H.          H.          H       +E  E   H.
|-----------|-----------|---------------|-------|
|-----------|-----------|---------------|-------|
|-----------|-5---------|---------------|-------|
|-3---------|-----------|-3-------(3)-3-|-3-----|
|
| Q   Q  Q    Q   Q  Q    E E E E  E  E   H.
|-----------|-----------|---------------|-3-----|
|-2---0-----|-0---2--0--|---0-2-0--2--5-|-------|
|--------5--|-----------|-5-------------|-------|
|-----------|-----------|---------------|-------|


 Ending
  H.           H.            H.          H.                         +H.
|------------|-------------|-----------|--------------------------|---------------------------|
|------------|-------------|-----------|--------------------------|---------------------------|
|------------|-5-----------|-----------|-3------------------------|-(3)-----------------------|
|-3----------|-------------|-3---------|--------------------------|---------------------------|
|
| Q   E Q.     Q   E E E E   Q   Q  Q    S  S S S S S S S S S S S    S  S S S S S S S S S S S
|------------|-------------|-----------|--------------------------|---------------------------|
|------------|---------2-2-|-2---0--2--|-3--3-3-3-3-3-3-3-3-3-3-3-|--3--3-3-3-3-3-3-3-3-3-3-3-|
|-5---4-5----|-0---0-0-----|-----------|--------------------------|---------------------------|
|------------|-------------|-----------|--------------------------|---------------------------|


  +H.         +H.        +H.          H.          H.            H.
|-----------|----------|------------|-----------|-------------|-------|
|-----------|----------|------------|-----------|-------------|-------|
|-(3)-------|-(3)------|-(3)--------|-----------|-------------|-------|
|-----------|----------|------------|-----------|-------------|-------|
|
|  q   H       H.         Q   Q  Q    Q   Q  Q    Q   E E E E   H.
|-----------|----------|------------|-----------|-------------|-------|
|--3--------|----------|--2---0-----|-0---2--0--|-----0-2-0-2-|-------|
|-----------|----------|---------5--|-----------|-5-----------|-5-----|
|-----------|----------|------------|-----------|-------------|-------|


  H.           H.            H.          H.           H.
|------------|-------------|-----------|------------|-----------|
|------------|-------------|-----------|------------|-----------|
|------------|-5-----------|-----------|-3----------|-----------|
|-3----------|-------------|-3---------|------------|-3---------|
|
|                                        TP
| Q   E Q.     Q   E E E E   Q   Q  Q    Q   Q  E E   Q   Q  Q
|------------|-------------|-----------|------------|-----------|
|------------|---------2-2-|-2---0--2--|-3---3--5-3-|-2---0-----|
|-5---4-5----|-0---0-0-----|-----------|------------|--------5--|
|------------|-------------|-----------|------------|-----------|


  Q.   Q.     Q.   Q.       +H.        +H.        +H.
|-----------|-------------|----------|----------|--------*|
|-----------|-------------|----------|----------|--------*|
|-5----5----|-5-----------|----------|----------|--------*|
|-----------|------3------|-(3)------|-(3)------|-(3)----*|
|
| Q.   Q.     H       E E    H.         H.         H.
|-----------|-------------|-^3-------|----------|--------*|
|-0----2----|-0-----------|-^2-------|----------|--------*|
|-----------|-----------0-|----------|----------|--------*|
|-----------|---------0---|----------|----------|--------*|



Duration Legend
---------------
W - whole; H - half; Q - quarter; E - 8th; S - 16th; T - 32nd; X - 64th; a - acciaccatura
+ - note tied to previous; . - note dotted; .. - note double dotted
Uncapitalized letters represent notes that are staccato (1/2 duration)
Irregular groupings are notated above the duration line
Duration letters will always appear directly above the note/fret number it represents the
duration for.  Duration letters with no fret number below them represent rests.  Multi-
bar rests are notated in the form Wxn, where n is the number of bars to rest for.  Low
melody durations appear below the staff

Tablature Legend
----------------
 h   - hammer-on
 p   - pull-off
 b   - bend
 pb  - pre-bend
 r   - bend release (if no number after the r, then release immediately)
 /\  - slide into or out of (from/to "nowhere")
 s   - legato slide
 S   - shift slide
 - natural harmonic
[n]  - artificial harmonic
n(n) - tapped harmonic
 ~   - vibrato
 tr  - trill
 T   - tap
 TP  - trem. picking
 PM  - palm muting
\n/  - tremolo bar dip; n = amount to dip
 \n  - tremolo bar down
 n/  - tremolo bar up
/n\  - tremolo bar inverted dip
 =   - hold bend; also acts as connecting device for hammers/pulls
 <> - volume swell (louder/softer)
 x   - on rhythm slash represents muted slash
 o   - on rhythm slash represents single note slash

Misc Legend
-----------
 |  - bar
||  - double bar
||o - repeat start
o|| - repeat end
*|  - double bar (ending)
 :  - bar (freetime)
 $  - Segno
 &  - Coda
Tempo markers -  = BPM(8/16=s8/s16), where s8 = swing 8ths, s16 = swing 16ths

comments
We did not receive enough feedback on this tab! Please rate:
print report bad tab
1 2 3 4 5
I want to post or [tab]
guest
You may want to rate the tab now too:
select rating
Please do not post tabs as comments. Select "correction" instead!