Oops, an error
Loading. Please wait.

Devils Dance Floor Tab

ver4
ver4

Whole song

Interactive

More versions @911Tabs.com
1,309 views 1 this week
no commentswrite comment
1 2 3 4 5
please rate
Autoscroll
+/-
esc
set tempo
stop
Contributor
Hey! There's an official Ultimate Guitar app which is ideal
for learning songs when you're away from computer. Get the app
WARNING: You are trying to view
                                    content from Ultimate-Guitar.com
                                    in an unauthorized application,
                                    which is prohibited.

                                    Please use an official Ultimate
                                    Guitar Tabs application for iPhone,
                                    iPad or Android to access legitimate
                                    chords, guitar, bass, and drum tabs
                                    from Ultimate-Guitar.com database.

                                    Type "ultimate guitar tabs" in Apple
                                    App Store's or Android Market's
                                    search to find the application.
#----------------------------------PLEASE NOTE---------------------------------#
#This file is the author's own work and represents their interpretation of the #
#song. You may only use this file for private study, scholarship, or research. #
#------------------------------------------------------------------------------#

DEVILS DANCE FLOOR
As recorded by Flogging Molly


        



Gtr I (E A D G B E) - 'Distortion'
Gtr II (E A D G B E) - 'Accoridan'
Gtr III (E A D G B E) - 'Acoustic'

  Q=146
 4/4
  Gtr I
  W          W          W          W
|----------|----------|----------|------|
|----------|----------|----------|------|
|----------|----------|----------|------|
|----------|----------|----------|------|
|----------|----------|----------|------|
|----------|----------|----------|------|


  W          W          W          W
|----------|----------|----------|------|
|----------|----------|----------|------|
|----------|----------|----------|------|
|----------|----------|----------|------|
|----------|----------|----------|------|
|----------|----------|----------|------|


  W          W          W          W
|----------|----------|----------|------|
|----------|----------|----------|------|
|----------|----------|----------|------|
|----------|----------|----------|------|
|----------|----------|----------|------|
|----------|----------|----------|------|


   E  S  S  E  S S  E  S  S  E     S S
|--------------------------------------|
|--------------------------------------|
|--------------------------------------|
|--7--7--7--7--7-7--7--7--7--7-----7-7-|
|--7--7--7--7--7-7--7--7--7--7-----7-7-|
|--5--5--5--5--5-5--5--5--5--5-----5-5-|
|
| Gtr II
|  E  E     E  E    Q        E     E
|-12-----------------------------------|
|----10----10-12---10-------10----12---|
|--------------------------------------|
|--------------------------------------|
|--------------------------------------|
|--------------------------------------|
|
| Gtr III
|  E  S  S  E  E    E  S  S  S  S  E
|-12-----------------------------------|
|----10-10-10-12---10-10-10-10-10-12---|
|--------------------------------------|
|--------------------------------------|
|--------------------------------------|
|--------------------------------------|


   E  S  S  E  S  S  E  S S E   S S    E  S  S  E  S S  E  S  S  E     S S
|-----------------------------------|--------------------------------------|
|-----------------------------------|--------------------------------------|
|-----------------------------------|--------------------------------------|
|-10-10-10-10-10-10--5--5-5-5---5-5-|--7--7--7--7--7-7--7--7--7--7-----7-7-|
|-10-10-10-10-10-10--5--5-5-5---5-5-|--7--7--7--7--7-7--7--7--7--7-----7-7-|
|--8--8--8--8--8--8--3--3-3-3---3-3-|--5--5--5--5--5-5--5--5--5--5-----5-5-|
|
|  Q        E  E     E  E   Q          E  E     E  E    Q        E     E
|-----------------------------------|-12-----------------------------------|
|-13-------15-13----12-10---8-------|----10----10-12---10-------10----12---|
|-----------------------------------|--------------------------------------|
|-----------------------------------|--------------------------------------|
|-----------------------------------|--------------------------------------|
|-----------------------------------|--------------------------------------|
|
|  E  S  S  E  E     E  E   S S S S    E  S  S  E  E    E  S  S  S  S  E
|-----------------------------------|-12-----------------------------------|
|-13-13-13-15-13----12-10---8-8-8-8-|----10-10-10-12---10-10-10-10-10-12---|
|-----------------------------------|--------------------------------------|
|-----------------------------------|--------------------------------------|
|-----------------------------------|--------------------------------------|
|-----------------------------------|--------------------------------------|


   E  S  S  E  S  S  E     S  S  E     S  S
|-------------------------------------------|
|-------------------------------------------|
|-------------------------------------------|
|-10-10-10-10-10-10--5-----5--5--5-----5--5-|
|-10-10-10-10-10-10--5-----5--5--5-----5--5-|
|--8--8--8--8--8--8--3-----3--3--3-----3--3-|
|
|  Q        E  E     H
|-------------------------------------------|
|-13-------15-13----12----------------------|
|-------------------------------------------|
|-------------------------------------------|
|-------------------------------------------|
|-------------------------------------------|
|
|  E  S  S  E  E     S  S  S  S  S  S  S  S
|-------------------------------------------|
|-13-13-13-15-13----12-12-12-12-12-12-12-12-|
|-------------------------------------------|
|-------------------------------------------|
|-------------------------------------------|
|-------------------------------------------|


   E  S  S  E  S S  E  S  S  E     S S    E  S  S  E  S  S  E  S S E   S S
|--------------------------------------|-------------------------------------|
|--------------------------------------|-------------------------------------|
|--------------------------------------|-------------------------------------|
|--7--7--7--7--7-7--7--7--7--7-----7-7-|-10-10-10-10-10-10--5--5-5-5---5-5---|
|--7--7--7--7--7-7--7--7--7--7-----7-7-|-10-10-10-10-10-10--5--5-5-5---5-5---|
|--5--5--5--5--5-5--5--5--5--5-----5-5-|--8--8--8--8--8--8--3--3-3-3---3-3---|
|
|  E  E     E  E    Q        E     E      Q        E  E     E  E   Q
|-12-----------------------------------|-------------------------------------|
|----10----10-12---10-------10----12---|-13-------15-13----12-10---8---------|
|--------------------------------------|-------------------------------------|
|--------------------------------------|-------------------------------------|
|--------------------------------------|-------------------------------------|
|--------------------------------------|-------------------------------------|
|
|  E  S  S  E  E    E  S  S  S  S  E      E  S  S  E  E     E  E   S S S S
|-12-----------------------------------|-------------------------------------|
|----10-10-10-12---10-10-10-10-10-12---|-13-13-13-15-13----12-10---8-8-8-8---|
|--------------------------------------|-------------------------------------|
|--------------------------------------|-------------------------------------|
|--------------------------------------|-------------------------------------|
|--------------------------------------|-------------------------------------|


   E  S  S  E  S S  E  S  S  E     S S
|--------------------------------------|
|--------------------------------------|
|--------------------------------------|
|--7--7--7--7--7-7--7--7--7--7-----7-7-|
|--7--7--7--7--7-7--7--7--7--7-----7-7-|
|--5--5--5--5--5-5--5--5--5--5-----5-5-|
|
|  E  E     E  E    Q        E     E
|-12-----------------------------------|
|----10----10-12---10-------10----12---|
|--------------------------------------|
|--------------------------------------|
|--------------------------------------|
|--------------------------------------|
|
|  E  S  S  E  E    E  S  S  S  S  E
|-12-----------------------------------|
|----10-10-10-12---10-10-10-10-10-12---|
|--------------------------------------|
|--------------------------------------|
|--------------------------------------|
|--------------------------------------|


   E  S  S  E  S S  E     S  S  E     S  S   W
|------------------------------------------|------|
|------------------------------------------|------|
|------------------------------------------|------|
|-10-10-10--5--5-5--7-----7--7--7-----7--7-|------|
|-10-10-10--5--5-5--7-----7--7--7-----7--7-|------|
|--8--8--8--3--3-3--5-----5--5--5-----5--5-|------|
|
|  E  E     E  E    H                        W
|------------------------------------------|------|
|-13-------12------10----------------------|------|
|----14-------12---------------------------|------|
|------------------------------------------|------|
|------------------------------------------|------|
|------------------------------------------|------|
|
|  E  S  S  E  E    S  S  S  S  S  S  S  S   W
|------------------------------------------|------|
|-13-------12------10-10-10-10-10-10-10-10-|------|
|----14-14----12---------------------------|------|
|------------------------------------------|------|
|------------------------------------------|------|
|------------------------------------------|------|


  W          W          W          W
|----------|----------|----------|------|
|----------|----------|----------|------|
|----------|----------|----------|------|
|----------|----------|----------|------|
|----------|----------|----------|------|
|----------|----------|----------|------|


  W          Q  Q  Q  Q    Q  Q  E S S E S S
|----------|-------------|-------------------|
|----------|-------------|-------------------|
|----------|-5--5--5--5--|-4--4--4-4-4-4-4-4-|
|----------|-7--7--7--7--|-5--5--5-5-5-5-5-5-|
|----------|-7--7--7--7--|-5--5--5-5-5-5-5-5-|
|----------|-5--5--5--5--|-3--3--3-3-3-3-3-3-|


   E  S  S  E  S S  E  S  S  E     S S
|--------------------------------------|
|--------------------------------------|
|--------------------------------------|
|--7--7--7--7--7-7--7--7--7--7-----7-7-|
|--7--7--7--7--7-7--7--7--7--7-----7-7-|
|--5--5--5--5--5-5--5--5--5--5-----5-5-|
|
| Gtr II
|  E  E     E  E    Q        E     E
|-12-----------------------------------|
|----10----10-12---10-------10----12---|
|--------------------------------------|
|--------------------------------------|
|--------------------------------------|
|--------------------------------------|
|
| Gtr III
|  E  S  S  E  E    E  S  S  S  S  E
|-12-----------------------------------|
|----10-10-10-12---10-10-10-10-10-12---|
|--------------------------------------|
|--------------------------------------|
|--------------------------------------|
|--------------------------------------|


   E  S  S  E  S  S  E  S S E   S S    E  S  S  E  S S  E  S  S  E     S S
|-----------------------------------|--------------------------------------|
|-----------------------------------|--------------------------------------|
|-----------------------------------|--------------------------------------|
|-10-10-10-10-10-10--5--5-5-5---5-5-|--7--7--7--7--7-7--7--7--7--7-----7-7-|
|-10-10-10-10-10-10--5--5-5-5---5-5-|--7--7--7--7--7-7--7--7--7--7-----7-7-|
|--8--8--8--8--8--8--3--3-3-3---3-3-|--5--5--5--5--5-5--5--5--5--5-----5-5-|
|
|  Q        E  E     E  E   Q          E  E     E  E    Q        E     E
|-----------------------------------|-12-----------------------------------|
|-13-------15-13----12-10---8-------|----10----10-12---10-------10----12---|
|-----------------------------------|--------------------------------------|
|-----------------------------------|--------------------------------------|
|-----------------------------------|--------------------------------------|
|-----------------------------------|--------------------------------------|
|
|  E  S  S  E  E     E  E   S S S S    E  S  S  E  E    E  S  S  S  S  E
|-----------------------------------|-12-----------------------------------|
|-13-13-13-15-13----12-10---8-8-8-8-|----10-10-10-12---10-10-10-10-10-12---|
|-----------------------------------|--------------------------------------|
|-----------------------------------|--------------------------------------|
|-----------------------------------|--------------------------------------|
|-----------------------------------|--------------------------------------|


   E  S  S  E  S  S  E     S  S  E     S  S
|-------------------------------------------|
|-------------------------------------------|
|-------------------------------------------|
|-10-10-10-10-10-10--5-----5--5--5-----5--5-|
|-10-10-10-10-10-10--5-----5--5--5-----5--5-|
|--8--8--8--8--8--8--3-----3--3--3-----3--3-|
|
|  Q        E  E     H
|-------------------------------------------|
|-13-------15-13----12----------------------|
|-------------------------------------------|
|-------------------------------------------|
|-------------------------------------------|
|-------------------------------------------|
|
|  E  S  S  E  E     S  S  S  S  S  S  S  S
|-------------------------------------------|
|-13-13-13-15-13----12-12-12-12-12-12-12-12-|
|-------------------------------------------|
|-------------------------------------------|
|-------------------------------------------|
|-------------------------------------------|


   E  S  S  E  S S  E  S  S  E     S S    E  S  S  E  S  S  E  S S E   S S
|--------------------------------------|-------------------------------------|
|--------------------------------------|-------------------------------------|
|--------------------------------------|-------------------------------------|
|--7--7--7--7--7-7--7--7--7--7-----7-7-|-10-10-10-10-10-10--5--5-5-5---5-5---|
|--7--7--7--7--7-7--7--7--7--7-----7-7-|-10-10-10-10-10-10--5--5-5-5---5-5---|
|--5--5--5--5--5-5--5--5--5--5-----5-5-|--8--8--8--8--8--8--3--3-3-3---3-3---|
|
|  E  E     E  E    Q        E     E      Q        E  E     E  E   Q
|-12-----------------------------------|-------------------------------------|
|----10----10-12---10-------10----12---|-13-------15-13----12-10---8---------|
|--------------------------------------|-------------------------------------|
|--------------------------------------|-------------------------------------|
|--------------------------------------|-------------------------------------|
|--------------------------------------|-------------------------------------|
|
|  E  S  S  E  E    E  S  S  S  S  E      E  S  S  E  E     E  E   S S S S
|-12-----------------------------------|-------------------------------------|
|----10-10-10-12---10-10-10-10-10-12---|-13-13-13-15-13----12-10---8-8-8-8---|
|--------------------------------------|-------------------------------------|
|--------------------------------------|-------------------------------------|
|--------------------------------------|-------------------------------------|
|--------------------------------------|-------------------------------------|


   E  S  S  E  S S  E  S  S  E     S S
|--------------------------------------|
|--------------------------------------|
|--------------------------------------|
|--7--7--7--7--7-7--7--7--7--7-----7-7-|
|--7--7--7--7--7-7--7--7--7--7-----7-7-|
|--5--5--5--5--5-5--5--5--5--5-----5-5-|
|
|  E  E     E  E    Q        E     E
|-12-----------------------------------|
|----10----10-12---10-------10----12---|
|--------------------------------------|
|--------------------------------------|
|--------------------------------------|
|--------------------------------------|
|
|  E  S  S  E  E    E  S  S  S  S  E
|-12-----------------------------------|
|----10-10-10-12---10-10-10-10-10-12---|
|--------------------------------------|
|--------------------------------------|
|--------------------------------------|
|--------------------------------------|


   E  S  S  E  S S  E     S  S  E     S  S   W
|------------------------------------------|------|
|------------------------------------------|------|
|------------------------------------------|------|
|-10-10-10--5--5-5--7-----7--7--7-----7--7-|------|
|-10-10-10--5--5-5--7-----7--7--7-----7--7-|------|
|--8--8--8--3--3-3--5-----5--5--5-----5--5-|------|
|
|  E  E     E  E    H                        W
|------------------------------------------|------|
|-13-------12------10----------------------|------|
|----14-------12---------------------------|------|
|------------------------------------------|------|
|------------------------------------------|------|
|------------------------------------------|------|
|
|  E  S  S  E  E    S  S  S  S  S  S  S  S   W
|------------------------------------------|------|
|-13-------12------10-10-10-10-10-10-10-10-|------|
|----14-14----12---------------------------|------|
|------------------------------------------|------|
|------------------------------------------|------|
|------------------------------------------|------|


  W          W          W          W
|----------|----------|----------|------|
|----------|----------|----------|------|
|----------|----------|----------|------|
|----------|----------|----------|------|
|----------|----------|----------|------|
|----------|----------|----------|------|


  W          Q  Q  Q  Q    Q  Q  E S S E S S   W
|----------|-------------|-------------------|------|
|----------|-------------|-------------------|------|
|----------|-5--5--5--5--|-4--4--4-4-4-4-4-4-|------|
|----------|-7--7--7--7--|-5--5--5-5-5-5-5-5-|------|
|----------|-7--7--7--7--|-5--5--5-5-5-5-5-5-|------|
|----------|-5--5--5--5--|-3--3--3-3-3-3-3-3-|------|


  W          W          W          W
|----------|----------|----------|------|
|----------|----------|----------|------|
|----------|----------|----------|------|
|----------|----------|----------|------|
|----------|----------|----------|------|
|----------|----------|----------|------|


  W          Q  Q  Q  Q    Q  Q  E S S E S S
|----------|-------------|-------------------|
|----------|-------------|-------------------|
|----------|-5--5--5--5--|-4--4--4-4-4-4-4-4-|
|----------|-7--7--7--7--|-5--5--5-5-5-5-5-5-|
|----------|-7--7--7--7--|-5--5--5-5-5-5-5-5-|
|----------|-5--5--5--5--|-3--3--3-3-3-3-3-3-|


   E  S  S  E  S S  E  S  S  E     S S
|--------------------------------------|
|--------------------------------------|
|--------------------------------------|
|--7--7--7--7--7-7--7--7--7--7-----7-7-|
|--7--7--7--7--7-7--7--7--7--7-----7-7-|
|--5--5--5--5--5-5--5--5--5--5-----5-5-|
|
| Gtr II
|  E  E     E  E    Q        E     E
|-12-----------------------------------|
|----10----10-12---10-------10----12---|
|--------------------------------------|
|--------------------------------------|
|--------------------------------------|
|--------------------------------------|
|
| Gtr III
|  E  S  S  E  E    E  S  S  S  S  E
|-12-----------------------------------|
|----10-10-10-12---10-10-10-10-10-12---|
|--------------------------------------|
|--------------------------------------|
|--------------------------------------|
|--------------------------------------|


   E  S  S  E  S  S  E  S S E   S S    E  S  S  E  S S  E  S  S  E     S S
|-----------------------------------|--------------------------------------|
|-----------------------------------|--------------------------------------|
|-----------------------------------|--------------------------------------|
|-10-10-10-10-10-10--5--5-5-5---5-5-|--7--7--7--7--7-7--7--7--7--7-----7-7-|
|-10-10-10-10-10-10--5--5-5-5---5-5-|--7--7--7--7--7-7--7--7--7--7-----7-7-|
|--8--8--8--8--8--8--3--3-3-3---3-3-|--5--5--5--5--5-5--5--5--5--5-----5-5-|
|
|  Q        E  E     E  E   Q          E  E     E  E    Q        E     E
|-----------------------------------|-12-----------------------------------|
|-13-------15-13----12-10---8-------|----10----10-12---10-------10----12---|
|-----------------------------------|--------------------------------------|
|-----------------------------------|--------------------------------------|
|-----------------------------------|--------------------------------------|
|-----------------------------------|--------------------------------------|
|
|  E  S  S  E  E     E  E   S S S S    E  S  S  E  E    E  S  S  S  S  E
|-----------------------------------|-12-----------------------------------|
|-13-13-13-15-13----12-10---8-8-8-8-|----10-10-10-12---10-10-10-10-10-12---|
|-----------------------------------|--------------------------------------|
|-----------------------------------|--------------------------------------|
|-----------------------------------|--------------------------------------|
|-----------------------------------|--------------------------------------|


   E  S  S  E  S  S  E     S  S  E     S  S
|-------------------------------------------|
|-------------------------------------------|
|-------------------------------------------|
|-10-10-10-10-10-10--5-----5--5--5-----5--5-|
|-10-10-10-10-10-10--5-----5--5--5-----5--5-|
|--8--8--8--8--8--8--3-----3--3--3-----3--3-|
|
|  Q        E  E     H
|-------------------------------------------|
|-13-------15-13----12----------------------|
|-------------------------------------------|
|-------------------------------------------|
|-------------------------------------------|
|-------------------------------------------|
|
|  E  S  S  E  E     S  S  S  S  S  S  S  S
|-------------------------------------------|
|-13-13-13-15-13----12-12-12-12-12-12-12-12-|
|-------------------------------------------|
|-------------------------------------------|
|-------------------------------------------|
|-------------------------------------------|


   E  S  S  E  S S  E  S  S  E     S S    E  S  S  E  S  S  E  S S E   S S
|--------------------------------------|-------------------------------------|
|--------------------------------------|-------------------------------------|
|--------------------------------------|-------------------------------------|
|--7--7--7--7--7-7--7--7--7--7-----7-7-|-10-10-10-10-10-10--5--5-5-5---5-5---|
|--7--7--7--7--7-7--7--7--7--7-----7-7-|-10-10-10-10-10-10--5--5-5-5---5-5---|
|--5--5--5--5--5-5--5--5--5--5-----5-5-|--8--8--8--8--8--8--3--3-3-3---3-3---|
|
|  E  E     E  E    Q        E     E      Q        E  E     E  E   Q
|-12-----------------------------------|-------------------------------------|
|----10----10-12---10-------10----12---|-13-------15-13----12-10---8---------|
|--------------------------------------|-------------------------------------|
|--------------------------------------|-------------------------------------|
|--------------------------------------|-------------------------------------|
|--------------------------------------|-------------------------------------|
|
|  E  S  S  E  E    E  S  S  S  S  E      E  S  S  E  E     E  E   S S S S
|-12-----------------------------------|-------------------------------------|
|----10-10-10-12---10-10-10-10-10-12---|-13-13-13-15-13----12-10---8-8-8-8---|
|--------------------------------------|-------------------------------------|
|--------------------------------------|-------------------------------------|
|--------------------------------------|-------------------------------------|
|--------------------------------------|-------------------------------------|


   E  S  S  E  S S  E  S  S  E     S S    E  S  S  E  S S  E     S  S  E     S  S
|--------------------------------------|------------------------------------------|
|--------------------------------------|------------------------------------------|
|--------------------------------------|------------------------------------------|
|--7--7--7--7--7-7--7--7--7--7-----7-7-|-10-10-10--5--5-5--7-----7--7--7-----7--7-|
|--7--7--7--7--7-7--7--7--7--7-----7-7-|-10-10-10--5--5-5--7-----7--7--7-----7--7-|
|--5--5--5--5--5-5--5--5--5--5-----5-5-|--8--8--8--3--3-3--5-----5--5--5-----5--5-|
|
|  E  E     E  E    Q        E     E      E  E     E  E    H
|-12-----------------------------------|------------------------------------------|
|----10----10-12---10-------10----12---|-13-------12------10----------------------|
|--------------------------------------|----14-------12---------------------------|
|--------------------------------------|------------------------------------------|
|--------------------------------------|------------------------------------------|
|--------------------------------------|------------------------------------------|
|
|  E  S  S  E  E    E  S  S  S  S  E      E  S  S  E  E    S  S  S  S  S  S  S  S
|-12-----------------------------------|------------------------------------------|
|----10-10-10-12---10-10-10-10-10-12---|-13-------12------10-10-10-10-10-10-10-10-|
|--------------------------------------|----14-14----12---------------------------|
|--------------------------------------|------------------------------------------|
|--------------------------------------|------------------------------------------|
|--------------------------------------|------------------------------------------|


   E  S  S  E  S S  E  S  S  E     S S
|----------------------------------------|
|----------------------------------------|
|----------------------------------------|
|--7--7--7--7--7-7--7--7--7--7-----7-7---|
|--7--7--7--7--7-7--7--7--7--7-----7-7---|
|--5--5--5--5--5-5--5--5--5--5-----5-5---|
|
|  E  E     E  E    Q        E     E
|-12-------------------------------------|
|----10----10-12---10-------10----12-----|
|----------------------------------------|
|----------------------------------------|
|----------------------------------------|
|----------------------------------------|
|
|  E  S  S  E  E    E  S  S  S  S  E
|-12-------------------------------------|
|----10-10-10-12---10-10-10-10-10-12-----|
|----------------------------------------|
|----------------------------------------|
|----------------------------------------|
|----------------------------------------|


   E  S  S  E  S S  E     S  S  E     S  S
|------------------------------------------|
|------------------------------------------|
|------------------------------------------|
|-10-10-10--5--5-5--7-----7--7--7-----7--7-|
|-10-10-10--5--5-5--7-----7--7--7-----7--7-|
|--8--8--8--3--3-3--5-----5--5--5-----5--5-|
|
|  E  E     E  E    H
|------------------------------------------|
|-13-------12------10----------------------|
|----14-------12---------------------------|
|------------------------------------------|
|------------------------------------------|
|------------------------------------------|
|
|  E  S  S  E  E    S  S  S  S  S  S  S  S
|------------------------------------------|
|-13-------12------10-10-10-10-10-10-10-10-|
|----14-14----12---------------------------|
|------------------------------------------|
|------------------------------------------|
|------------------------------------------|


   E  S  S  E  S S  E  S  S  E     S S    E  S  S  E  S  S  E  S S  E     S  S
|--------------------------------------|-----------------------------------------|
|--------------------------------------|-----------------------------------------|
|--------------------------------------|-----------------------------------------|
|--9--9--9--9--9-9--9--9--9--9-----9-9-|-12-12-12-12-12-12--7--7-7--7-----7--7---|
|--9--9--9--9--9-9--9--9--9--9-----9-9-|-12-12-12-12-12-12--7--7-7--7-----7--7---|
|--7--7--7--7--7-7--7--7--7--7-----7-7-|-10-10-10-10-10-10--5--5-5--5-----5--5---|
|
|  E  E     E  E    Q        E     E      Q        E  E     E  E    Q
|-14-----------------------------------|-----------------------------------------|
|----12----12-14---12-------12----14---|-15-------17-15----14-12---10------------|
|--------------------------------------|-----------------------------------------|
|--------------------------------------|-----------------------------------------|
|--------------------------------------|-----------------------------------------|
|--------------------------------------|-----------------------------------------|
|
|  E  S  S  E  E    E  S  S  S  S  E      E  S  S  E  E     E  E    S  S  S  S
|-14-----------------------------------|-----------------------------------------|
|----12-12-12-14---12-12-12-12-12-14---|-15-15-15-17-15----14-12---10-10-10-10---|
|--------------------------------------|-----------------------------------------|
|--------------------------------------|-----------------------------------------|
|--------------------------------------|-----------------------------------------|
|--------------------------------------|-----------------------------------------|


   E  S  S  E  S S  E  S  S  E     S S    E  S  S  E  S  S  E     S  S  E     S  S
|--------------------------------------|-------------------------------------------|
|--------------------------------------|-------------------------------------------|
|--------------------------------------|-------------------------------------------|
|--9--9--9--9--9-9--9--9--9--9-----9-9-|-12-12-12-12-12-12--7-----7--7--7-----7--7-|
|--9--9--9--9--9-9--9--9--9--9-----9-9-|-12-12-12-12-12-12--7-----7--7--7-----7--7-|
|--7--7--7--7--7-7--7--7--7--7-----7-7-|-10-10-10-10-10-10--5-----5--5--5-----5--5-|
|
|  E  E     E  E    Q        E     E      Q        E  E     H
|-14-----------------------------------|-------------------------------------------|
|----12----12-14---12-------12----14---|-15-------17-15----14----------------------|
|--------------------------------------|-------------------------------------------|
|--------------------------------------|-------------------------------------------|
|--------------------------------------|-------------------------------------------|
|--------------------------------------|-------------------------------------------|
|
|  E  S  S  E  E    E  S  S  S  S  E      E  S  S  E  E     S  S  S  S  S  S  S  S
|-14-----------------------------------|-------------------------------------------|
|----12-12-12-14---12-12-12-12-12-14---|-15-15-15-17-15----14-14-14-14-14-14-14-14-|
|--------------------------------------|-------------------------------------------|
|--------------------------------------|-------------------------------------------|
|--------------------------------------|-------------------------------------------|
|--------------------------------------|-------------------------------------------|


   E  S  S  E  S S  E  S  S  E     S S
|----------------------------------------|
|----------------------------------------|
|----------------------------------------|
|--9--9--9--9--9-9--9--9--9--9-----9-9---|
|--9--9--9--9--9-9--9--9--9--9-----9-9---|
|--7--7--7--7--7-7--7--7--7--7-----7-7---|
|
|  E  E     E  E    Q        E     E
|-14-------------------------------------|
|----12----12-14---12-------12----14-----|
|----------------------------------------|
|----------------------------------------|
|----------------------------------------|
|----------------------------------------|
|
|  E  S  S  E  E    E  S  S  S  S  E
|-14-------------------------------------|
|----12-12-12-14---12-12-12-12-12-14-----|
|----------------------------------------|
|----------------------------------------|
|----------------------------------------|
|----------------------------------------|


   E  S  S  E  S  S  E  S S  E     S  S    E  S  S  E  S S  E  S  S  E     S S
|---------------------------------------|--------------------------------------|
|---------------------------------------|--------------------------------------|
|---------------------------------------|--------------------------------------|
|-12-12-12-12-12-12--7--7-7--7-----7--7-|--9--9--9--9--9-9--9--9--9--9-----9-9-|
|-12-12-12-12-12-12--7--7-7--7-----7--7-|--9--9--9--9--9-9--9--9--9--9-----9-9-|
|-10-10-10-10-10-10--5--5-5--5-----5--5-|--7--7--7--7--7-7--7--7--7--7-----7-7-|
|
|  Q        E  E     E  E    Q             E  E     E  E    Q        E     E
|---------------------------------------|-14-----------------------------------|
|-15-------17-15----14-12---10----------|----12----12-14---12-------12----14---|
|---------------------------------------|--------------------------------------|
|---------------------------------------|--------------------------------------|
|---------------------------------------|--------------------------------------|
|---------------------------------------|--------------------------------------|
|
|  E  S  S  E  E     E  E    S  S  S  S    E  S  S  E  E    E  S  S  S  S  E
|---------------------------------------|-14-----------------------------------|
|-15-15-15-17-15----14-12---10-10-10-10-|----12-12-12-14---12-12-12-12-12-14---|
|---------------------------------------|--------------------------------------|
|---------------------------------------|--------------------------------------|
|---------------------------------------|--------------------------------------|
|---------------------------------------|--------------------------------------|


   E  S  S  E  S S  E     S  S  E     S  S
|--------------------------------------------|
|--------------------------------------------|
|--------------------------------------------|
|-12-12-12--7--7-7--7-----9--9--9-----9--9---|
|-12-12-12--7--7-7--7-----9--9--9-----9--9---|
|-10-10-10--5--5-5--5-----7--7--7-----7--7---|
|
|  E  E     E  E    H
|--------------------------------------------|
|-15-------14------12------------------------|
|----16-------14-----------------------------|
|--------------------------------------------|
|--------------------------------------------|
|--------------------------------------------|
|
|  E  S  S  E  E    S  S  S  S  S  S  S  S
|--------------------------------------------|
|-15-------14------12-12-12-12-12-12-12-12---|
|----16-16----14-----------------------------|
|--------------------------------------------|
|--------------------------------------------|
|--------------------------------------------|


  W          W          W          W
|----------|----------|----------|------|
|----------|----------|----------|------|
|----------|----------|----------|------|
|----------|----------|----------|------|
|----------|----------|----------|------|
|----------|----------|----------|------|


  E S S Q  +H       +Q   Q  H      W          W
|---x-x-5--(5)----|-(5)----------|----------|------|
|---x-x-5--(5)----|-(5)----------|----------|------|
|---x-x-6--(6)----|-(6)----------|----------|------|
|---x-x-7--(7)----|-(7)----------|----------|------|
|---x-x-7--(7)----|-(7)----------|----------|------|
|---x-x-5--(5)----|-(5)----------|----------|------|


  Gtr III
   E  S  S  E  E  E  S  S  S  S  E
|-12-------------------------------|
|----10-10-10-12-10-10-10-10-10-12-|
|----------------------------------|
|----------------------------------|
|----------------------------------|
|----------------------------------|


   E  S  S  E  E  E  E S S S S    E  S  S  E  E  E  S  S  S  S  E
|------------------------------|-12-------------------------------|
|-13-13-13-15-13-12-10-8-8-8-8-|----10-10-10-12-10-10-10-10-10-12-|
|------------------------------|----------------------------------|
|------------------------------|----------------------------------|
|------------------------------|----------------------------------|
|------------------------------|----------------------------------|


   E  S  S  E  E  S  S  S  S  S  S  S  S
|----------------------------------------|
|-13-13-13-15-13-12-12-12-12-12-12-12-12-|
|----------------------------------------|
|----------------------------------------|
|----------------------------------------|
|----------------------------------------|


   E  S  S  E  E  E  S  S  S  S  E    E  S  S  E  E  E  E S S S S
|-12-------------------------------|------------------------------|
|----10-10-10-12-10-10-10-10-10-12-|-13-13-13-15-13-12-10-8-8-8-8-|
|----------------------------------|------------------------------|
|----------------------------------|------------------------------|
|----------------------------------|------------------------------|
|----------------------------------|------------------------------|


  Gtr II
   W
|----------------------------------|
|----------------------------------|
|----------------------------------|
|----------------------------------|
|----------------------------------|
|----------------------------------|
|
| Gtr III
|  E  S  S  E  E  E  S  S  S  S  E
|-12-------------------------------|
|----10-10-10-12-10-10-10-10-10-12-|
|----------------------------------|
|----------------------------------|
|----------------------------------|
|----------------------------------|


   W                                        E  E     E  E  Q        E     E
|----------------------------------------|-12-------------------------------|
|----------------------------------------|----10----10-12-10-------10----12-|
|----------------------------------------|----------------------------------|
|----------------------------------------|----------------------------------|
|----------------------------------------|----------------------------------|
|----------------------------------------|----------------------------------|
|
|  E  S  S  E  E  S  S  S  S  S  S  S  S    E  S  S  E  E  E  S  S  S  S  E
|----------------------------------------|-12-------------------------------|
|-13-------12----10-10-10-10-10-10-10-10-|----10-10-10-12-10-10-10-10-10-12-|
|----14-14----12-------------------------|----------------------------------|
|----------------------------------------|----------------------------------|
|----------------------------------------|----------------------------------|
|----------------------------------------|----------------------------------|


   Q        E  E  E  E Q          E  E     E  E  Q        E     E
|------------------------------|-12-------------------------------|
|-13-------15-13-12-10-8-------|----10----10-12-10-------10----12-|
|------------------------------|----------------------------------|
|------------------------------|----------------------------------|
|------------------------------|----------------------------------|
|------------------------------|----------------------------------|
|
|  E  S  S  E  E  E  E S S S S    E  S  S  E  E  E  S  S  S  S  E
|------------------------------|-12-------------------------------|
|-13-13-13-15-13-12-10-8-8-8-8-|----10-10-10-12-10-10-10-10-10-12-|
|------------------------------|----------------------------------|
|------------------------------|----------------------------------|
|------------------------------|----------------------------------|
|------------------------------|----------------------------------|


   Q        E  E  H
|----------------------------------------|
|-13-------15-13-12----------------------|
|----------------------------------------|
|----------------------------------------|
|----------------------------------------|
|----------------------------------------|
|
|  E  S  S  E  E  S  S  S  S  S  S  S  S
|----------------------------------------|
|-13-13-13-15-13-12-12-12-12-12-12-12-12-|
|----------------------------------------|
|----------------------------------------|
|----------------------------------------|
|----------------------------------------|


   E  E     E  E  Q        E     E
|-12-------------------------------|
|----10----10-12-10-------10----12-|
|----------------------------------|
|----------------------------------|
|----------------------------------|
|----------------------------------|
|
|  E  S  S  E  E  E  S  S  S  S  E
|-12-------------------------------|
|----10-10-10-12-10-10-10-10-10-12-|
|----------------------------------|
|----------------------------------|
|----------------------------------|
|----------------------------------|


   Q        E  E  E  E Q          E  E     E  E  Q        E     E
|------------------------------|-12-------------------------------|
|-13-------15-13-12-10-8-------|----10----10-12-10-------10----12-|
|------------------------------|----------------------------------|
|------------------------------|----------------------------------|
|------------------------------|----------------------------------|
|------------------------------|----------------------------------|
|
|  E  S  S  E  E  E  E S S S S    E  S  S  E  E  E  S  S  S  S  E
|------------------------------|-12-------------------------------|
|-13-13-13-15-13-12-10-8-8-8-8-|----10-10-10-12-10-10-10-10-10-12-|
|------------------------------|----------------------------------|
|------------------------------|----------------------------------|
|------------------------------|----------------------------------|
|------------------------------|----------------------------------|


  Gtr I
   W
|----------------------------------------|
|----------------------------------------|
|----------------------------------------|
|----------------------------------------|
|----------------------------------------|
|----------------------------------------|
|
| Gtr II
|  E  E     E  E  H
|----------------------------------------|
|-13-------12----10----------------------|
|----14-------12-------------------------|
|----------------------------------------|
|----------------------------------------|
|----------------------------------------|
|
| Gtr III
|  E  S  S  E  E  S  S  S  S  S  S  S  S
|----------------------------------------|
|-13-------12----10-10-10-10-10-10-10-10-|
|----14-14----12-------------------------|
|----------------------------------------|
|----------------------------------------|
|----------------------------------------|


   W                                  W
|--5-------------------------------|------------------------------|
|--5-------------------------------|------------------------------|
|--6-------------------------------|------------------------------|
|--7-------------------------------|------------------------------|
|--7-------------------------------|------------------------------|
|--5-------------------------------|------------------------------|
|
|  E  E     E  E  Q        E     E    Q        E  E  E  E Q
|-12-------------------------------|------------------------------|
|----10----10-12-10-------10----12-|-13-------15-13-12-10-8-------|
|----------------------------------|------------------------------|
|----------------------------------|------------------------------|
|----------------------------------|------------------------------|
|----------------------------------|------------------------------|
|
|  E  S  S  E  E  E  S  S  S  S  E    E  S  S  E  E  E  E S S S S
|-12-------------------------------|------------------------------|
|----10-10-10-12-10-10-10-10-10-12-|-13-13-13-15-13-12-10-8-8-8-8-|
|----------------------------------|------------------------------|
|----------------------------------|------------------------------|
|----------------------------------|------------------------------|
|----------------------------------|------------------------------|


  Gtr II
   E  E     E  E  Q        E     E
|-12-------------------------------|
|----10----10-12-10-------10----12-|
|----------------------------------|
|----------------------------------|
|----------------------------------|
|----------------------------------|
|
| Gtr III
|  E  S  S  E  E  E  S  S  S  S  E
|-12-------------------------------|
|----10-10-10-12-10-10-10-10-10-12-|
|----------------------------------|
|----------------------------------|
|----------------------------------|
|----------------------------------|


   Q        E  E  H                         E  E     E  E  Q        E     E
|----------------------------------------|-12-------------------------------|
|-13-------15-13-12----------------------|----10----10-12-10-------10----12-|
|----------------------------------------|----------------------------------|
|----------------------------------------|----------------------------------|
|----------------------------------------|----------------------------------|
|----------------------------------------|----------------------------------|
|
|  E  S  S  E  E  S  S  S  S  S  S  S  S    E  S  S  E  E  E  S  S  S  S  E
|----------------------------------------|-12-------------------------------|
|-13-13-13-15-13-12-12-12-12-12-12-12-12-|----10-10-10-12-10-10-10-10-10-12-|
|----------------------------------------|----------------------------------|
|----------------------------------------|----------------------------------|
|----------------------------------------|----------------------------------|
|----------------------------------------|----------------------------------|


   Q        E  E  E  E Q          E  E     E  E  Q        E     E
|------------------------------|-12-------------------------------|
|-13-------15-13-12-10-8-------|----10----10-12-10-------10----12-|
|------------------------------|----------------------------------|
|------------------------------|----------------------------------|
|------------------------------|----------------------------------|
|------------------------------|----------------------------------|
|
|  E  S  S  E  E  E  E S S S S    E  S  S  E  E  E  S  S  S  S  E
|------------------------------|-12-------------------------------|
|-13-13-13-15-13-12-10-8-8-8-8-|----10-10-10-12-10-10-10-10-10-12-|
|------------------------------|----------------------------------|
|------------------------------|----------------------------------|
|------------------------------|----------------------------------|
|------------------------------|----------------------------------|


   E  E     E  E  H
|----------------------------------------|
|-13-------12----10----------------------|
|----14-------12-------------------------|
|----------------------------------------|
|----------------------------------------|
|----------------------------------------|
|
|  E  S  S  E  E  S  S  S  S  S  S  S  S
|----------------------------------------|
|-13-------12----10-10-10-10-10-10-10-10-|
|----14-14----12-------------------------|
|----------------------------------------|
|----------------------------------------|
|----------------------------------------|


   E  E     E  E  Q        E     E
|-12-------------------------------|
|----10----10-12-10-------10----12-|
|----------------------------------|
|----------------------------------|
|----------------------------------|
|----------------------------------|
|
|  E  S  S  E  E  E  S  S  S  S  E
|-12-------------------------------|
|----10-10-10-12-10-10-10-10-10-12-|
|----------------------------------|
|----------------------------------|
|----------------------------------|
|----------------------------------|


   Q        E  E  E  E Q          E  E     E  E  Q        E     E
|------------------------------|-12-------------------------------|
|-13-------15-13-12-10-8-------|----10----10-12-10-------10----12-|
|------------------------------|----------------------------------|
|------------------------------|----------------------------------|
|------------------------------|----------------------------------|
|------------------------------|----------------------------------|
|
|  E  S  S  E  E  E  E S S S S    E  S  S  E  E  E  S  S  S  S  E
|------------------------------|-12-------------------------------|
|-13-13-13-15-13-12-10-8-8-8-8-|----10-10-10-12-10-10-10-10-10-12-|
|------------------------------|----------------------------------|
|------------------------------|----------------------------------|
|------------------------------|----------------------------------|
|------------------------------|----------------------------------|


   Q        E  E  H
|----------------------------------------|
|-13-------15-13-12----------------------|
|----------------------------------------|
|----------------------------------------|
|----------------------------------------|
|----------------------------------------|
|
|  E  S  S  E  E  S  S  S  S  S  S  S  S
|----------------------------------------|
|-13-13-13-15-13-12-12-12-12-12-12-12-12-|
|----------------------------------------|
|----------------------------------------|
|----------------------------------------|
|----------------------------------------|


   E  E     E  E  Q        E     E    Q        E  E  E  E Q
|-12-------------------------------|------------------------------|
|----10----10-12-10-------10----12-|-13-------15-13-12-10-8-------|
|----------------------------------|------------------------------|
|----------------------------------|------------------------------|
|----------------------------------|------------------------------|
|----------------------------------|------------------------------|
|
|  E  S  S  E  E  E  S  S  S  S  E    E  S  S  E  E  E  E S S S S
|-12-------------------------------|------------------------------|
|----10-10-10-12-10-10-10-10-10-12-|-13-13-13-15-13-12-10-8-8-8-8-|
|----------------------------------|------------------------------|
|----------------------------------|------------------------------|
|----------------------------------|------------------------------|
|----------------------------------|------------------------------|


  Gtr I
                                      ~~~~
   W                                  W
|----------------------------------|------------------------------------------|
|----------------------------------|------------------------------------------|
|----------------------------------|------------------------------------------|
|----------------------------------|------------------------------------------|
|----------------------------------|------------------------------------------|
|----------------------------------|--5b7-------------------------------------|
|
| Gtr II
|  E  E     E  E  Q        E     E    E    E     E  E  H
|-12-------------------------------|------------------------------------------|
|----10----10-12-10-------10----12-|-13---------12----10----------------------|
|----------------------------------|------14-------12-------------------------|
|----------------------------------|------------------------------------------|
|----------------------------------|------------------------------------------|
|----------------------------------|------------------------------------------|
|
| Gtr III
|  E  S  S  E  E  E  S  S  S  S  E    E    S  S  E  E  S  S  S  S  S  S  S  S
|-12-------------------------------|------------------------------------------|
|----10-10-10-12-10-10-10-10-10-12-|-13---------12----10-10-10-10-10-10-10-10-|
|----------------------------------|------14-14----12-------------------------|
|----------------------------------|------------------------------------------|
|----------------------------------|------------------------------------------|
|----------------------------------|------------------------------------------|


   E  S  S  E  S S  E  S  S  E     S S
|--------------------------------------|
|--------------------------------------|
|--------------------------------------|
|--7--7--7--7--7-7--7--7--7--7-----7-7-|
|--7--7--7--7--7-7--7--7--7--7-----7-7-|
|--5--5--5--5--5-5--5--5--5--5-----5-5-|
|
|  E  E     E  E    Q        E     E
|-12-----------------------------------|
|----10----10-12---10-------10----12---|
|--------------------------------------|
|--------------------------------------|
|--------------------------------------|
|--------------------------------------|
|
|  E  S  S  E  E    E  S  S  S  S  E
|-12-----------------------------------|
|----10-10-10-12---10-10-10-10-10-12---|
|--------------------------------------|
|--------------------------------------|
|--------------------------------------|
|--------------------------------------|


   E  S  S  E  S  S  E  S S E   S S    E  S  S  E  S S  E  S  S  E     S S
|-----------------------------------|--------------------------------------|
|-----------------------------------|--------------------------------------|
|-----------------------------------|--------------------------------------|
|-10-10-10-10-10-10--5--5-5-5---5-5-|--7--7--7--7--7-7--7--7--7--7-----7-7-|
|-10-10-10-10-10-10--5--5-5-5---5-5-|--7--7--7--7--7-7--7--7--7--7-----7-7-|
|--8--8--8--8--8--8--3--3-3-3---3-3-|--5--5--5--5--5-5--5--5--5--5-----5-5-|
|
|  Q        E  E     E  E   Q          E  E     E  E    Q        E     E
|-----------------------------------|-12-----------------------------------|
|-13-------15-13----12-10---8-------|----10----10-12---10-------10----12---|
|-----------------------------------|--------------------------------------|
|-----------------------------------|--------------------------------------|
|-----------------------------------|--------------------------------------|
|-----------------------------------|--------------------------------------|
|
|  E  S  S  E  E     E  E   S S S S    E  S  S  E  E    E  S  S  S  S  E
|-----------------------------------|-12-----------------------------------|
|-13-13-13-15-13----12-10---8-8-8-8-|----10-10-10-12---10-10-10-10-10-12---|
|-----------------------------------|--------------------------------------|
|-----------------------------------|--------------------------------------|
|-----------------------------------|--------------------------------------|
|-----------------------------------|--------------------------------------|


   E  S  S  E  S  S  E     S  S  E     S  S
|---------------------------------------------|
|---------------------------------------------|
|---------------------------------------------|
|-10-10-10-10-10-10--5-----5--5--5-----5--5---|
|-10-10-10-10-10-10--5-----5--5--5-----5--5---|
|--8--8--8--8--8--8--3-----3--3--3-----3--3---|
|
|  Q        E  E     H
|---------------------------------------------|
|-13-------15-13----12------------------------|
|---------------------------------------------|
|---------------------------------------------|
|---------------------------------------------|
|---------------------------------------------|
|
|  E  S  S  E  E     S  S  S  S  S  S  S  S
|---------------------------------------------|
|-13-13-13-15-13----12-12-12-12-12-12-12-12---|
|---------------------------------------------|
|---------------------------------------------|
|---------------------------------------------|
|---------------------------------------------|


   E  S  S  E  S S  E  S  S  E     S S
|--------------------------------------|
|--------------------------------------|
|--------------------------------------|
|--7--7--7--7--7-7--7--7--7--7-----7-7-|
|--7--7--7--7--7-7--7--7--7--7-----7-7-|
|--5--5--5--5--5-5--5--5--5--5-----5-5-|
|
|  E  E     E  E    Q        E     E
|-12-----------------------------------|
|----10----10-12---10-------10----12---|
|--------------------------------------|
|--------------------------------------|
|--------------------------------------|
|--------------------------------------|
|
|  E  S  S  E  E    E  S  S  S  S  E
|-12-----------------------------------|
|----10-10-10-12---10-10-10-10-10-12---|
|--------------------------------------|
|--------------------------------------|
|--------------------------------------|
|--------------------------------------|


   E  S  S  E  S  S  E  S S E   S S    E  S  S  E  S S  E  S  S  E     S S
|-----------------------------------|--------------------------------------|
|-----------------------------------|--------------------------------------|
|-----------------------------------|--------------------------------------|
|-10-10-10-10-10-10--5--5-5-5---5-5-|--7--7--7--7--7-7--7--7--7--7-----7-7-|
|-10-10-10-10-10-10--5--5-5-5---5-5-|--7--7--7--7--7-7--7--7--7--7-----7-7-|
|--8--8--8--8--8--8--3--3-3-3---3-3-|--5--5--5--5--5-5--5--5--5--5-----5-5-|
|
|  Q        E  E     E  E   Q          E  E     E  E    Q        E     E
|-----------------------------------|-12-----------------------------------|
|-13-------15-13----12-10---8-------|----10----10-12---10-------10----12---|
|-----------------------------------|--------------------------------------|
|-----------------------------------|--------------------------------------|
|-----------------------------------|--------------------------------------|
|-----------------------------------|--------------------------------------|
|
|  E  S  S  E  E     E  E   S S S S    E  S  S  E  E    E  S  S  S  S  E
|-----------------------------------|-12-----------------------------------|
|-13-13-13-15-13----12-10---8-8-8-8-|----10-10-10-12---10-10-10-10-10-12---|
|-----------------------------------|--------------------------------------|
|-----------------------------------|--------------------------------------|
|-----------------------------------|--------------------------------------|
|-----------------------------------|--------------------------------------|


   E  S  S  E  S S  E     S  S  E     S  S   W          W          W
|------------------------------------------|----------|----------|------|
|------------------------------------------|----------|----------|------|
|------------------------------------------|----------|----------|------|
|-10-10-10--5--5-5--7-----7--7--7-----7--7-|----------|----------|------|
|-10-10-10--5--5-5--7-----7--7--7-----7--7-|----------|----------|------|
|--8--8--8--3--3-3--5-----5--5--5-----5--5-|----------|----------|------|
|
|  E  E     E  E    H                        W          W          W
|------------------------------------------|----------|----------|------|
|-13-------12------10----------------------|----------|----------|------|
|----14-------12---------------------------|----------|----------|------|
|------------------------------------------|----------|----------|------|
|------------------------------------------|----------|----------|------|
|------------------------------------------|----------|----------|------|
|
|  E  S  S  E  E    S  S  S  S  S  S  S  S   W          W          W
|------------------------------------------|----------|----------|------|
|-13-------12------10-10-10-10-10-10-10-10-|----------|----------|------|
|----14-14----12---------------------------|----------|----------|------|
|------------------------------------------|----------|----------|------|
|------------------------------------------|----------|----------|------|
|------------------------------------------|----------|----------|------|


  W          S S S S S S S S H      W          Q  Q  Q  Q
|----------|-5---5---5---5--------|----------|-------------|
|----------|-5---5---5---5--------|----------|-------------|
|----------|-6---6---6---6--------|----------|-5--5--5--5--|
|----------|-7---7---7---7--------|----------|-7--7--7--7--|
|----------|-7---7---7---7--------|----------|-7--7--7--7--|
|----------|-5---5---5---5--------|----------|-5--5--5--5--|


  Q  Q  E S S E S S    E  S  S  E  S S  E  S  S  E     S S
|-------------------|--------------------------------------|
|-------------------|--------------------------------------|
|-4--4--4-4-4-4-4-4-|--------------------------------------|
|-5--5--5-5-5-5-5-5-|--7--7--7--7--7-7--7--7--7--7-----7-7-|
|-5--5--5-5-5-5-5-5-|--7--7--7--7--7-7--7--7--7--7-----7-7-|
|-3--3--3-3-3-3-3-3-|--5--5--5--5--5-5--5--5--5--5-----5-5-|
|
| Gtr II
| W                    E  E     E  E    Q        E     E
|-------------------|-12-----------------------------------|
|-------------------|----10----10-12---10-------10----12---|
|-------------------|--------------------------------------|
|-------------------|--------------------------------------|
|-------------------|--------------------------------------|
|-------------------|--------------------------------------|
|
| Gtr III
| W                    E  S  S  E  E    E  S  S  S  S  E
|-------------------|-12-----------------------------------|
|-------------------|----10-10-10-12---10-10-10-10-10-12---|
|-------------------|--------------------------------------|
|-------------------|--------------------------------------|
|-------------------|--------------------------------------|
|-------------------|--------------------------------------|


   E  S  S  E  S  S  E  S S E   S S
|------------------------------------|
|------------------------------------|
|------------------------------------|
|-10-10-10-10-10-10--5--5-5-5---5-5--|
|-10-10-10-10-10-10--5--5-5-5---5-5--|
|--8--8--8--8--8--8--3--3-3-3---3-3--|
|
|  Q        E  E     E  E   Q
|------------------------------------|
|-13-------15-13----12-10---8--------|
|------------------------------------|
|------------------------------------|
|------------------------------------|
|------------------------------------|
|
|  E  S  S  E  E     E  E   S S S S
|------------------------------------|
|-13-13-13-15-13----12-10---8-8-8-8--|
|------------------------------------|
|------------------------------------|
|------------------------------------|
|------------------------------------|


   E  S  S  E  S S  E  S  S  E     S S    E  S  S  E  S  S  E     S  S  E     S  S
|--------------------------------------|-------------------------------------------|
|--------------------------------------|-------------------------------------------|
|--------------------------------------|-------------------------------------------|
|--7--7--7--7--7-7--7--7--7--7-----7-7-|-10-10-10-10-10-10--5-----5--5--5-----5--5-|
|--7--7--7--7--7-7--7--7--7--7-----7-7-|-10-10-10-10-10-10--5-----5--5--5-----5--5-|
|--5--5--5--5--5-5--5--5--5--5-----5-5-|--8--8--8--8--8--8--3-----3--3--3-----3--3-|
|
|  E  E     E  E    Q        E     E      Q        E  E     H
|-12-----------------------------------|-------------------------------------------|
|----10----10-12---10-------10----12---|-13-------15-13----12----------------------|
|--------------------------------------|-------------------------------------------|
|--------------------------------------|-------------------------------------------|
|--------------------------------------|-------------------------------------------|
|--------------------------------------|-------------------------------------------|
|
|  E  S  S  E  E    E  S  S  S  S  E      E  S  S  E  E     S  S  S  S  S  S  S  S
|-12-----------------------------------|-------------------------------------------|
|----10-10-10-12---10-10-10-10-10-12---|-13-13-13-15-13----12-12-12-12-12-12-12-12-|
|--------------------------------------|-------------------------------------------|
|--------------------------------------|-------------------------------------------|
|--------------------------------------|-------------------------------------------|
|--------------------------------------|-------------------------------------------|


   E  S  S  E  S S  E  S  S  E     S S
|----------------------------------------|
|----------------------------------------|
|----------------------------------------|
|--7--7--7--7--7-7--7--7--7--7-----7-7---|
|--7--7--7--7--7-7--7--7--7--7-----7-7---|
|--5--5--5--5--5-5--5--5--5--5-----5-5---|
|
|  E  E     E  E    Q        E     E
|-12-------------------------------------|
|----10----10-12---10-------10----12-----|
|----------------------------------------|
|----------------------------------------|
|----------------------------------------|
|----------------------------------------|
|
|  E  S  S  E  E    E  S  S  S  S  E
|-12-------------------------------------|
|----10-10-10-12---10-10-10-10-10-12-----|
|----------------------------------------|
|----------------------------------------|
|----------------------------------------|
|----------------------------------------|


   E  S  S  E  S  S  E  S S E   S S    E  S  S  E  S S  E  S  S  E     S S
|-----------------------------------|--------------------------------------|
|-----------------------------------|--------------------------------------|
|-----------------------------------|--------------------------------------|
|-10-10-10-10-10-10--5--5-5-5---5-5-|--7--7--7--7--7-7--7--7--7--7-----7-7-|
|-10-10-10-10-10-10--5--5-5-5---5-5-|--7--7--7--7--7-7--7--7--7--7-----7-7-|
|--8--8--8--8--8--8--3--3-3-3---3-3-|--5--5--5--5--5-5--5--5--5--5-----5-5-|
|
|  Q        E  E     E  E   Q          E  E     E  E    Q        E     E
|-----------------------------------|-12-----------------------------------|
|-13-------15-13----12-10---8-------|----10----10-12---10-------10----12---|
|-----------------------------------|--------------------------------------|
|-----------------------------------|--------------------------------------|
|-----------------------------------|--------------------------------------|
|-----------------------------------|--------------------------------------|
|
|  E  S  S  E  E     E  E   S S S S    E  S  S  E  E    E  S  S  S  S  E
|-----------------------------------|-12-----------------------------------|
|-13-13-13-15-13----12-10---8-8-8-8-|----10-10-10-12---10-10-10-10-10-12---|
|-----------------------------------|--------------------------------------|
|-----------------------------------|--------------------------------------|
|-----------------------------------|--------------------------------------|
|-----------------------------------|--------------------------------------|


   E  S  S  E  S S  E     S  S  E     S  S
|--------------------------------------------|
|--------------------------------------------|
|--------------------------------------------|
|-10-10-10--5--5-5--7-----7--7--7-----7--7---|
|-10-10-10--5--5-5--7-----7--7--7-----7--7---|
|--8--8--8--3--3-3--5-----5--5--5-----5--5---|
|
|  E  E     E  E    H
|--------------------------------------------|
|-13-------12------10------------------------|
|----14-------12-----------------------------|
|--------------------------------------------|
|--------------------------------------------|
|--------------------------------------------|
|
|  E  S  S  E  E    S  S  S  S  S  S  S  S
|--------------------------------------------|
|-13-------12------10-10-10-10-10-10-10-10---|
|----14-14----12-----------------------------|
|--------------------------------------------|
|--------------------------------------------|
|--------------------------------------------|


   E  S  S  E  S S  E  S  S  E     S S
|--------------------------------------|
|--------------------------------------|
|--------------------------------------|
|--7--7--7--7--7-7--7--7--7--7-----7-7-|
|--7--7--7--7--7-7--7--7--7--7-----7-7-|
|--5--5--5--5--5-5--5--5--5--5-----5-5-|
|
|  E  E     E  E    Q        E     E
|-12-----------------------------------|
|----10----10-12---10-------10----12---|
|--------------------------------------|
|--------------------------------------|
|--------------------------------------|
|--------------------------------------|
|
|  E  S  S  E  E    E  S  S  S  S  E
|-12-----------------------------------|
|----10-10-10-12---10-10-10-10-10-12---|
|--------------------------------------|
|--------------------------------------|
|--------------------------------------|
|--------------------------------------|


   E  S  S  E  S  S  E  S S E   S S    E  S  S  E  S S  E  S  S  E     S S
|-----------------------------------|--------------------------------------|
|-----------------------------------|--------------------------------------|
|-----------------------------------|--------------------------------------|
|-10-10-10-10-10-10--5--5-5-5---5-5-|--7--7--7--7--7-7--7--7--7--7-----7-7-|
|-10-10-10-10-10-10--5--5-5-5---5-5-|--7--7--7--7--7-7--7--7--7--7-----7-7-|
|--8--8--8--8--8--8--3--3-3-3---3-3-|--5--5--5--5--5-5--5--5--5--5-----5-5-|
|
|  Q        E  E     E  E   Q          E  E     E  E    Q        E     E
|-----------------------------------|-12-----------------------------------|
|-13-------15-13----12-10---8-------|----10----10-12---10-------10----12---|
|-----------------------------------|--------------------------------------|
|-----------------------------------|--------------------------------------|
|-----------------------------------|--------------------------------------|
|-----------------------------------|--------------------------------------|
|
|  E  S  S  E  E     E  E   S S S S    E  S  S  E  E    E  S  S  S  S  E
|-----------------------------------|-12-----------------------------------|
|-13-13-13-15-13----12-10---8-8-8-8-|----10-10-10-12---10-10-10-10-10-12---|
|-----------------------------------|--------------------------------------|
|-----------------------------------|--------------------------------------|
|-----------------------------------|--------------------------------------|
|-----------------------------------|--------------------------------------|


   E  S  S  E  S  S  E     S  S  E     S  S
|-------------------------------------------|
|-------------------------------------------|
|-------------------------------------------|
|-10-10-10-10-10-10--5-----5--5--5-----5--5-|
|-10-10-10-10-10-10--5-----5--5--5-----5--5-|
|--8--8--8--8--8--8--3-----3--3--3-----3--3-|
|
|  Q        E  E     H
|-------------------------------------------|
|-13-------15-13----12----------------------|
|-------------------------------------------|
|-------------------------------------------|
|-------------------------------------------|
|-------------------------------------------|
|
|  E  S  S  E  E     S  S  S  S  S  S  S  S
|-------------------------------------------|
|-13-13-13-15-13----12-12-12-12-12-12-12-12-|
|-------------------------------------------|
|-------------------------------------------|
|-------------------------------------------|
|-------------------------------------------|


   E  S  S  E  S S  E  S  S  E     S S    E  S  S  E  S  S  E  S S E   S S
|--------------------------------------|-------------------------------------|
|--------------------------------------|-------------------------------------|
|--------------------------------------|-------------------------------------|
|--7--7--7--7--7-7--7--7--7--7-----7-7-|-10-10-10-10-10-10--5--5-5-5---5-5---|
|--7--7--7--7--7-7--7--7--7--7-----7-7-|-10-10-10-10-10-10--5--5-5-5---5-5---|
|--5--5--5--5--5-5--5--5--5--5-----5-5-|--8--8--8--8--8--8--3--3-3-3---3-3---|
|
|  E  E     E  E    Q        E     E      Q        E  E     E  E   Q
|-12-----------------------------------|-------------------------------------|
|----10----10-12---10-------10----12---|-13-------15-13----12-10---8---------|
|--------------------------------------|-------------------------------------|
|--------------------------------------|-------------------------------------|
|--------------------------------------|-------------------------------------|
|--------------------------------------|-------------------------------------|
|
|  E  S  S  E  E    E  S  S  S  S  E      E  S  S  E  E     E  E   S S S S
|-12-----------------------------------|-------------------------------------|
|----10-10-10-12---10-10-10-10-10-12---|-13-13-13-15-13----12-10---8-8-8-8---|
|--------------------------------------|-------------------------------------|
|--------------------------------------|-------------------------------------|
|--------------------------------------|-------------------------------------|
|--------------------------------------|-------------------------------------|


   E  S  S  E  S S  E  S  S  E     S S    E  S  S  E  S S  E     S  S  E     S  S
|--------------------------------------|------------------------------------------|
|--------------------------------------|------------------------------------------|
|--------------------------------------|------------------------------------------|
|--7--7--7--7--7-7--7--7--7--7-----7-7-|-10-10-10--5--5-5--7-----7--7--7-----7--7-|
|--7--7--7--7--7-7--7--7--7--7-----7-7-|-10-10-10--5--5-5--7-----7--7--7-----7--7-|
|--5--5--5--5--5-5--5--5--5--5-----5-5-|--8--8--8--3--3-3--5-----5--5--5-----5--5-|
|
|  E  E     E  E    Q        E     E      E  E     E  E    H
|-12-----------------------------------|------------------------------------------|
|----10----10-12---10-------10----12---|-13-------12------10----------------------|
|--------------------------------------|----14-------12---------------------------|
|--------------------------------------|------------------------------------------|
|--------------------------------------|------------------------------------------|
|--------------------------------------|------------------------------------------|
|
|  E  S  S  E  E    E  S  S  S  S  E      E  S  S  E  E    S  S  S  S  S  S  S  S
|-12-----------------------------------|------------------------------------------|
|----10-10-10-12---10-10-10-10-10-12---|-13-------12------10-10-10-10-10-10-10-10-|
|--------------------------------------|----14-14----12---------------------------|
|--------------------------------------|------------------------------------------|
|--------------------------------------|------------------------------------------|
|--------------------------------------|------------------------------------------|


   E  S  S  E  S S  E  S  S  E     S S
|----------------------------------------|
|----------------------------------------|
|----------------------------------------|
|--7--7--7--7--7-7--7--7--7--7-----7-7---|
|--7--7--7--7--7-7--7--7--7--7-----7-7---|
|--5--5--5--5--5-5--5--5--5--5-----5-5---|
|
|  E  E     E  E    Q        E     E
|-12-------------------------------------|
|----10----10-12---10-------10----12-----|
|----------------------------------------|
|----------------------------------------|
|----------------------------------------|
|----------------------------------------|
|
|  E  S  S  E  E    E  S  S  S  S  E
|-12-------------------------------------|
|----10-10-10-12---10-10-10-10-10-12-----|
|----------------------------------------|
|----------------------------------------|
|----------------------------------------|
|----------------------------------------|


   E  S  S  E  S S  E     S  S  E     S  S
|------------------------------------------|
|------------------------------------------|
|------------------------------------------|
|-10-10-10--5--5-5--7-----7--7--7-----7--7-|
|-10-10-10--5--5-5--7-----7--7--7-----7--7-|
|--8--8--8--3--3-3--5-----5--5--5-----5--5-|
|
|  E  E     E  E    H
|------------------------------------------|
|-13-------12------10----------------------|
|----14-------12---------------------------|
|------------------------------------------|
|------------------------------------------|
|------------------------------------------|
|
|  E  S  S  E  E    S  S  S  S  S  S  S  S
|------------------------------------------|
|-13-------12------10-10-10-10-10-10-10-10-|
|----14-14----12---------------------------|
|------------------------------------------|
|------------------------------------------|
|------------------------------------------|


   E  S  S  E  S S  E  S  S  E     S S    E  S  S  E  S  S  E  S  S  E  S  S
|--------------------------------------|-------------------------------------|
|--------------------------------------|-------------------------------------|
|--------------------------------------|-------------------------------------|
|--7--7--7--7--7-7--7--7--7--7-----7-7-|-10-10-10-10-10-10-10-10-10-10-10-10-|
|--7--7--7--7--7-7--7--7--7--7-----7-7-|-10-10-10-10-10-10-10-10-10-10-10-10-|
|--5--5--5--5--5-5--5--5--5--5-----5-5-|--8--8--8--8--8--8--8--8--8--8--8--8-|
|
|  E  E     E  E    Q        E     E      W
|-12-----------------------------------|-------------------------------------|
|----10----10-12---10-------10----12---|-13----------------------------------|
|--------------------------------------|-------------------------------------|
|--------------------------------------|-------------------------------------|
|--------------------------------------|-------------------------------------|
|--------------------------------------|-------------------------------------|
|
|  E  S  S  E  E    E  S  S  S  S  E      W
|-12-----------------------------------|-------------------------------------|
|----10-10-10-12---10-10-10-10-10-12---|-13----------------------------------|
|--------------------------------------|-------------------------------------|
|--------------------------------------|-------------------------------------|
|--------------------------------------|-------------------------------------|
|--------------------------------------|-------------------------------------|


   E S S E S S E S S E S S
|--------------------------|
|--------------------------|
|--------------------------|
|--5-5-5-5-5-5-5-5-5-5-5-5-|
|--5-5-5-5-5-5-5-5-5-5-5-5-|
|--3-3-3-3-3-3-3-3-3-3-3-3-|
|
| Gtrs II, III
|  W
|--------------------------|
|-12-----------------------|
|--------------------------|
|--------------------------|
|--------------------------|
|--------------------------|


   E S S E S S E S S E S S    E S S E S S E S S E S S
|--------------------------|---------------------------|
|--------------------------|---------------------------|
|--------------------------|---------------------------|
|--7-7-7-7-7-7-7-7-7-7-7-7-|--7-7-7-7-7-7-7-7-7-7-7-7--|
|--7-7-7-7-7-7-7-7-7-7-7-7-|--7-7-7-7-7-7-7-7-7-7-7-7--|
|--5-5-5-5-5-5-5-5-5-5-5-5-|--5-5-5-5-5-5-5-5-5-5-5-5--|
|
|  W                          W
|--------------------------|---------------------------|
|-10-----------------------|-10------------------------|
|--------------------------|---------------------------|
|--------------------------|---------------------------|
|--------------------------|---------------------------|
|--------------------------|---------------------------|


   W           Q  Q  H
|-----------|-------------*|
|-----------|-------------*|
|-----------|-------------*|
|--7--------|--7----------*|
|--7--------|--7----------*|
|--5--------|--5----------*|
|
|  W           Q  Q  H
|-----------|-------------*|
|-10--------|-10----------*|
|-----------|-------------*|
|-----------|-------------*|
|-----------|-------------*|
|-----------|-------------*|



Duration Legend
---------------
W - whole; H - half; Q - quarter; E - 8th; S - 16th; T - 32nd; X - 64th; a - acciaccatura
+ - note tied to previous; . - note dotted; .. - note double dotted
Uncapitalized letters represent notes that are staccato (1/2 duration)
Irregular groupings are notated above the duration line
Duration letters will always appear directly above the note/fret number it represents the
duration for.  Duration letters with no fret number below them represent rests.  Multi-
bar rests are notated in the form Wxn, where n is the number of bars to rest for.  Low
melody durations appear below the staff

Tablature Legend
----------------
 h   - hammer-on
 p   - pull-off
 b   - bend
 pb  - pre-bend
 r   - bend release (if no number after the r, then release immediately)
 /\  - slide into or out of (from/to "nowhere")
 s   - legato slide
 S   - shift slide
 - natural harmonic
[n]  - artificial harmonic
n(n) - tapped harmonic
 ~   - vibrato
 tr  - trill
 T   - tap
 TP  - trem. picking
 PM  - palm muting
\n/  - tremolo bar dip; n = amount to dip
 \n  - tremolo bar down
 n/  - tremolo bar up
/n\  - tremolo bar inverted dip
 =   - hold bend; also acts as connecting device for hammers/pulls
 <> - volume swell (louder/softer)
 x   - on rhythm slash represents muted slash
 o   - on rhythm slash represents single note slash

Misc Legend
-----------
 |  - bar
||  - double bar
||o - repeat start
o|| - repeat end
*|  - double bar (ending)
 :  - bar (freetime)
 $  - Segno
 &  - Coda
Tempo markers -  = BPM(8/16=s8/s16), where s8 = swing 8ths, s16 = swing 16ths

comments
We did not receive enough feedback on this tab! Please rate:
print report bad tab
1 2 3 4 5
I want to post or [tab]
guest
You may want to rate the tab now too:
select rating
Please do not post tabs as comments. Select "correction" instead!