Oops, an error
Loading. Please wait.

Drunken Lullabies Tab

ver2
ver2

Whole song

Interactive

More versions @911Tabs.com
28,310 views 30 this week
2 commentsread comments
1 2 3 4 5
excellent!
x 8
Autoscroll
+/-
esc
set tempo
stop
Contributor
WARNING: You are trying to view
                                    content from Ultimate-Guitar.com
                                    in an unauthorized application,
                                    which is prohibited.

                                    Please use an official Ultimate
                                    Guitar Tabs application for iPhone,
                                    iPad or Android to access legitimate
                                    chords, guitar, bass, and drum tabs
                                    from Ultimate-Guitar.com database.

                                    Type "ultimate guitar tabs" in Apple
                                    App Store's or Android Market's
                                    search to find the application.
#----------------------------------PLEASE NOTE---------------------------------#
#This file is the author's own work and represents their interpretation of the #
#song. You may only use this file for private study, scholarship, or research. #
#------------------------------------------------------------------------------#

DRUNKEN LULLABIES
As recorded by Flogging Molly
(From the 2002 Album ROCK AGAINST BUSH VOLUME 2)

Transcribed by Kevin Billingslea
        

Words and Music by Flogging Molly
Arranged by Kevin Billingslea

Gtr I (E A D G B E) - 'Twangy Geetar'
Gtr II (E A D G B E) - 'Violin'
Gtr III (E A D G B E) - 'Crunch Time!'

 Funkalicious Intro!
  It's Irish Party Time, Kids! Q=157
  N.C.
 4/4
  Gtr I
  Q  Q  Q  E E   E S S E E E E E E   S S S S E E E E E E
|--------------|---------0-----3-2-|---------------------|
|--------------|-3-3-3-3---3-------|-5-5-5-5-3-5-3-------|
|------------4-|-------------4-----|---------------4---4-|
|----------5---|-------------------|-----------------5---|
|--------------|-------------------|---------------------|
|--------------|-------------------|---------------------|


  E S S E E E E E E   S S S S E E Q  E E   E S S E E E E E E
|-------------------|--------------------|---------0-----3-2-|
|-3-3-3-3-5-3-------|--------------------|-3-3-3-3---3-------|
|-------------4-5-4-|-2-2-2-2-2-4-2----4-|-------------4-----|
|-------------------|----------------5---|-------------------|
|-------------------|--------------------|-------------------|
|-------------------|--------------------|-------------------|


  S S S S E E E E E E   E S S E E E S S E E   S S S S E E H
|---------------------|---------------------|---------------------|
|-5-5-5-5-3-5-3-------|-3-3-3---------------|---------------------|
|---------------4---4-|-------5-4-2-2-2-4-2-|-0-0-0-0-0-2-0-------|
|-----------------5---|---------------------|---------------------|
|---------------------|---------------------|---------------------|
|---------------------|---------------------|---------------------|
|
| Gtr II
| W                     W                     Q       Q   Q  E E
|---------------------|---------------------|---------------------|
|---------------------|---------------------|---------------------|
|---------------------|---------------------|------------------4--|
|---------------------|---------------------|----------------5----|
|---------------------|---------------------|---------------------|
|---------------------|---------------------|---------------------|


  G                 C       G                           D
  Gtr I
                    PM----------------------------------|
  W                 H       H         W                 W
|-3---------------|---------3-------|-3---------------|-2---------------|
|-3---------------|-1-------3-------|-3---------------|-3---------------|
|-0---------------|-0-------0-------|-0---------------|-2---------------|
|-0---------------|-2-------0-------|-0---------------|-0---------------|
|-2---------------|-3-------2-------|-2---------------|-----------------|
|-3---------------|---------3-------|-3---------------|-----------------|
|
| Gtr III
| E E E E E E E E   E E E E E E E E   E E E E E E E E   E E E E E E E E
|-----------------|-----------------|-----------------|-----------------|
|-----------------|-----------------|-----------------|-----------------|
|-----------------|-5-5-5-5---------|-----------------|-7-7-7-7-7-7-7-7-|
|-5-5-5-5-5-5-5-5-|-5-5-5-5-5-5-5-5-|-5-5-5-5-5-5-5-5-|-7-7-7-7-7-7-7-7-|
|-5-5-5-5-5-5-5-5-|-3-3-3-3-5-5-5-5-|-5-5-5-5-5-5-5-5-|-5-5-5-5-5-5-5-5-|
|-3-3-3-3-3-3-3-3-|---------3-3-3-3-|-3-3-3-3-3-3-3-3-|-----------------|
|
| Gtr II
| E E E E E E E E   E E E E E E E E   E E E E E E E E   E E E E Q   E E
|-------0-----3-2-|-----------------|-----------------|-----------------|
|-3-3-3---3-------|-5-5-3-5-3-------|-3-3-3-5-3-------|-----------------|
|-----------4-----|-----------4---4-|-----------4-5-4-|-2-2-2-4-2-----4-|
|-----------------|-------------5---|-----------------|-------------5---|
|-----------------|-----------------|-----------------|-----------------|
|-----------------|-----------------|-----------------|-----------------|


  G                 C       G                 D5        G
  Gtr I
  W                 H       H         H       H         W
|-3---------------|---------3-------|-3---------------|-3--------------|
|-3---------------|-1-------3-------|-3-------3-------|-3--------------|
|-0---------------|-0-------0-------|-0-------2-------|-0--------------|
|-0---------------|-2-------0-------|-0-------0-------|-0--------------|
|-2---------------|-3-------2-------|-2---------------|-2--------------|
|-3---------------|---------3-------|-3---------------|-3--------------|
|
| Gtr III
| E E E E E E E E   E E E E E E E E   E E E E E E E E   E E E E E E Q
|-----------------|-----------------|-----------------|----------------|
|-----------------|-----------------|-----------------|----------------|
|-----------------|-5-5-5-5---------|---------7-7-7-7-|----------------|
|-5-5-5-5-5-5-5-5-|-5-5-5-5-5-5-5-5-|-5-5-5-5-7-7-7-7-|-5-5-5-5-5-5-5--|
|-5-5-5-5-5-5-5-5-|-3-3-3-3-5-5-5-5-|-5-5-5-5-5-5-5-5-|-5-5-5-5-5-5-5--|
|-3-3-3-3-3-3-3-3-|---------3-3-3-3-|-3-3-3-3---------|-3-3-3-3-3-3-3--|
|
| Gtr II
| E E E E E E E E   E E E E E E E E   E E E E E E E E   E E E E H
|-------0-----3-2-|-----------------|-----------------|----------------|
|-3-3-3---3-------|-5-5-3-5-3-------|-3-3-------------|----------------|
|-----------4-----|-----------4---4-|-----5-4-2-2-4-2-|-0-0-0-2-0------|
|-----------------|-------------5---|-----------------|----------------|
|-----------------|-----------------|-----------------|----------------|
|-----------------|-----------------|-----------------|----------------|


 Verse
  G
  Gtr I
  W                 +W
|-3---------------|-(3)-------------------|
|-3---------------|-(3)-------------------|
|-0---------------|-(0)-------------------|
|-0---------------|-(0)-------------------|
|-2---------------|-(2)-------------------|
|-3---------------|-(3)-------------------|
|
| Gtr III
| E E E E E E E E    E  E  E  E E  E  E E
|-----------------|-----------------------|
|-----------------|-----------------------|
|-----------------|-----------------------|
|-5-5-5-5-5-5-5-5-|--5--5--5--5-5--5--5-5-|
|-5-5-5-5-5-5-5-5-|--5--5--5--5-5--5--5-5-|
|-3-3-3-3-3-3-3-3-|--3--3--3--3-3--3--3-3-|
|
| W                  Q    +E  Q   +E  Q
|-----------------|-----------------------|
|-----------------|-----------------------|
|-----------------|-----------------------|
|-5---------------|--5----(5)-5---(5)-4---|
|-----------------|-----------------------|
|-----------------|-----------------------|


  E5
  W                 +W
|-----------------|---------------------|
|-5---------------|-(5)-----------------|
|-4---------------|-(4)-----------------|
|-2---------------|-(2)-----------------|
|-2---------------|-(2)-----------------|
|-0---------------|-(0)-----------------|
|
| E E E E E E E E    E  E E E E E E   E
|-----------------|---------------------|
|-----------------|---------------------|
|-----------------|---------------------|
|-2-2-2-2-2-2-2-2-|--2--2-2-2-2-2-2---2-|
|-2-2-2-2-2-2-2-2-|--2--2-2-2-2-2-2---2-|
|-0-0-0-0-0-0-0-0-|--0--0-0-0-0-0-0---0-|
|
| W                  Q    Q   Q   S S E
|-----------------|---------------------|
|-----------------|---------------------|
|-----------------|---------------------|
|-2---------------|--2----4---5---4-5-4-|
|-----------------|---------------------|
|-----------------|---------------------|


  C
  W                 +W
|-----------------|---------------------|
|-1---------------|-(1)-----------------|
|-0---------------|-(0)-----------------|
|-2---------------|-(2)-----------------|
|-3---------------|-(3)-----------------|
|-----------------|---------------------|
|
| E E E E E E E E    E  E E E E E E   E
|-----------------|---------------------|
|-----------------|---------------------|
|-5-5-5-5-5-5-5-5-|--5--5-5-5-5-5-5---5-|
|-5-5-5-5-5-5-5-5-|--5--5-5-5-5-5-5---5-|
|-3-3-3-3-3-3-3-3-|--3--3-3-3-3-3-3---3-|
|-----------------|---------------------|
|
| W                  H.           S S E
|-----------------|---------------------|
|-----------------|-/1------------1-3-1-|
|-----------------|---------------------|
|-2---------------|---------------------|
|-----------------|---------------------|
|-----------------|---------------------|


  E5                   D
  W                    W
|--------------------|-2-----------------|
|-5------------------|-3-----------------|
|-4------------------|-2-----------------|
|-2------------------|-0-----------------|
|-2------------------|-------------------|
|-0------------------|-------------------|
|
| E  E E E E E E   E   E E E E E E E E
|--------------------|-------------------|
|--------------------|-------------------|
|--------------------|-7-7-7-7-7-7-7-7---|
|-2--2-2-2-2-2-2---2-|-7-7-7-7-7-7-7-7---|
|-2--2-2-2-2-2-2---2-|-5-5-5-5-5-5-5-5---|
|-0--0-0-0-0-0-0---0-|-------------------|
|
|                      ~
| H.           S S E   W
|--------------------|-------------------|
|-0------------0-1-0-|-------------------|
|--------------------|-2-----------------|
|--------------------|-------------------|
|--------------------|-------------------|
|--------------------|-------------------|


  G
  W                    +W
|-3------------------|-(3)-------------------|
|-3------------------|-(3)-------------------|
|-0------------------|-(0)-------------------|
|-0------------------|-(0)-------------------|
|-2------------------|-(2)-------------------|
|-3------------------|-(3)-------------------|
|
| E  E E E E E  E  E    E  E   E   E E E E E
|--------------------|-----------------------|
|--------------------|-----------------------|
|--------------------|-----------------------|
|-5--5-5-5-5-5--5--5-|--5--5---5---5-5-5-5-5-|
|-5--5-5-5-5-5--5--5-|--5--5---5---5-5-5-5-5-|
|-3--3-3-3-3-3--3--3-|--3--3---3---3-3-3-3-3-|
|
| H.           +E  E    E  S S S S Q   E Q
|--------------------|-----------------------|
|--------------------|-----------------------|
|--------------------|--4--4-5-4-2-4---0-----|
|-5------------(5)-5-|-------------------4---|
|--------------------|-----------------------|
|--------------------|-----------------------|


  E5
  W                 +W
|-----------------|----------------------|
|-5---------------|-(5)------------------|
|-4---------------|-(4)------------------|
|-2---------------|-(2)------------------|
|-2---------------|-(2)------------------|
|-0---------------|-(0)------------------|
|
| E E E E E E E E    E  E E E E E E   E
|-----------------|----------------------|
|-----------------|----------------------|
|-----------------|----------------------|
|-2-2-2-2-2-2-2-2-|--2--2-2-2-2-2-2---2--|
|-2-2-2-2-2-2-2-2-|--2--2-2-2-2-2-2---2--|
|-0-0-0-0-0-0-0-0-|--0--0-0-0-0-0-0---0--|
|
| W                  Q    Q   Q   S S E
|-----------------|----------------------|
|-----------------|----------------------|
|-----------------|----------------------|
|-2---------------|--2----4---5---4-5-4--|
|-----------------|----------------------|
|-----------------|----------------------|


  C
  W                 +W
|-----------------|---------------------|
|-1---------------|-(1)-----------------|
|-0---------------|-(0)-----------------|
|-2---------------|-(2)-----------------|
|-3---------------|-(3)-----------------|
|-----------------|---------------------|
|
| E E E E E E E E    E  E E E E E E   E
|-----------------|---------------------|
|-----------------|---------------------|
|-5-5-5-5-5-5-5-5-|--5--5-5-5-5-5-5---5-|
|-5-5-5-5-5-5-5-5-|--5--5-5-5-5-5-5---5-|
|-3-3-3-3-3-3-3-3-|--3--3-3-3-3-3-3---3-|
|-----------------|---------------------|
|
| W                  H.           S S E
|-----------------|---------------------|
|-----------------|-/1------------1-3-1-|
|-----------------|---------------------|
|-2---------------|---------------------|
|-----------------|---------------------|
|-----------------|---------------------|


  E5                   D
  W                    W
|--------------------|-2-----------------|
|-5------------------|-3-----------------|
|-4------------------|-2-----------------|
|-2------------------|-0-----------------|
|-2------------------|-------------------|
|-0------------------|-------------------|
|
| E  E E E E E E   E   E E E E E E E E
|--------------------|-------------------|
|--------------------|-------------------|
|--------------------|-7-7-7-7-7-7-7-7---|
|-2--2-2-2-2-2-2---2-|-7-7-7-7-7-7-7-7---|
|-2--2-2-2-2-2-2---2-|-5-5-5-5-5-5-5-5---|
|-0--0-0-0-0-0-0---0-|-------------------|
|
|                      ~
| H.           S S E   W
|--------------------|-------------------|
|-0------------0-1-0-|-------------------|
|--------------------|-2-----------------|
|--------------------|-------------------|
|--------------------|-------------------|
|--------------------|-------------------|


 Chorus
  C                 G                 C                 D
  W                 W                 W                 W
|-----------------|-3---------------|-----------------|-2---------------------|
|-1---------------|-3---------------|-1---------------|-3---------------------|
|-0---------------|-0---------------|-0---------------|-2---------------------|
|-2---------------|-0---------------|-2---------------|-0---------------------|
|-3---------------|-2---------------|-3---------------|-----------------------|
|-----------------|-3---------------|-----------------|-----------------------|
|
| E E E E E E E E   E E E E E E E E   E E E E E E E E   E   E   E E E E E E
|-----------------|-----------------|-----------------|-----------------------|
|-----------------|-----------------|-----------------|-----------------------|
|-5-5-5-5-5-5-5-5-|-----------------|-5-5-5-5-5-5-5-5-|-7---7---7-7-7-7-7-7---|
|-5-5-5-5-5-5-5-5-|-5-5-5-5-5-5-5-5-|-5-5-5-5-5-5-5-5-|-7---7---7-7-7-7-7-7---|
|-3-3-3-3-3-3-3-3-|-5-5-5-5-5-5-5-5-|-3-3-3-3-3-3-3-3-|-5---5---5-5-5-5-5-5---|
|-----------------|-3-3-3-3-3-3-3-3-|-----------------|-----------------------|
|
| W                 E E E Q   E E E   Q   Q   Q   Q     S S S S E E E E E E
|-----------------|-----------------|-----0---3---0---|-----------------------|
|-1---------------|-1-0---------0---|-1---------------|-5-8-5-3-5---5-7-3-5---|
|-----------------|-----2-0---2---0-|-----------------|-----------5-----------|
|-----------------|-----------------|-----------------|-----------------------|
|-----------------|-----------------|-----------------|-----------------------|
|-----------------|-----------------|-----------------|-----------------------|


  G       C         E5                G         D           G
  H       H         W                 H         H           W
|-3---------------|-----------------|-3---------2---------|-3----------------|
|-3-------1-------|-5---------------|-3---------3---------|-3----------------|
|-0-------0-------|-4---------------|-0---------2---------|-0----------------|
|-0-------2-------|-2---------------|-0---------0---------|-0----------------|
|-2-------3-------|-2---------------|-2-------------------|-2----------------|
|-3---------------|-0---------------|-3-------------------|-3----------------|
|
| E E E E E E E E   E E E E E E E E   E E E  E  E E  E  E   E  E E E E E E E
|-----------------|-----------------|---------------------|------------------|
|-----------------|-----------------|---------------------|------------------|
|---------5-5-5-5-|-----------------|-----------7-7--7--7-|------------------|
|-5-5-5-5-5-5-5-5-|-2-2-2-2-2-2-2-2-|-5-5-5--5--7-7--7--7-|-5--5-5-5-5-5-5-5-|
|-5-5-5-5-3-3-3-3-|-2-2-2-2-2-2-2-2-|-5-5-5--5--5-5--5--5-|-5--5-5-5-5-5-5-5-|
|-3-3-3-3---------|-0-0-0-0-0-0-0-0-|-3-3-3--3------------|-3--3-3-3-3-3-3-3-|
|
| Gtr II
| Q   Q   Q   E E   E Q   Q   E E E   E Q   +E  Q   +E  E   H.           E E
|-----------------|-----------------|---------------------|------------------|
|-8---7---5-------|-5-3-------------|---------------------|------------------|
|-------------7-7-|-------4---4-2-4-|-4-7---(7)-4---(4)-2-|-0------------0-4-|
|-----------------|-----------------|---------------------|------------------|
|-----------------|-----------------|---------------------|------------------|
|-----------------|-----------------|---------------------|------------------|


  G                 C       G                           D
  W                 H       H         W                 W
|-3---------------|---------3-------|-3---------------|-2---------------|
|-3---------------|-1-------3-------|-3---------------|-3---------------|
|-0---------------|-0-------0-------|-0---------------|-2---------------|
|-0---------------|-2-------0-------|-0---------------|-0---------------|
|-2---------------|-3-------2-------|-2---------------|-----------------|
|-3---------------|---------3-------|-3---------------|-----------------|
|
| E E E E E E E E   E E E E E E E E   E E E E E E E E   E E E E E E E E
|-----------------|-----------------|-----------------|-----------------|
|-----------------|-----------------|-----------------|-----------------|
|-----------------|-5-5-5-5---------|-----------------|-7-7-7-7-7-7-7-7-|
|-5-5-5-5-5-5-5-5-|-5-5-5-5-5-5-5-5-|-5-5-5-5-5-5-5-5-|-7-7-7-7-7-7-7-7-|
|-5-5-5-5-5-5-5-5-|-3-3-3-3-5-5-5-5-|-5-5-5-5-5-5-5-5-|-5-5-5-5-5-5-5-5-|
|-3-3-3-3-3-3-3-3-|---------3-3-3-3-|-3-3-3-3-3-3-3-3-|-----------------|
|
| E E E E E E E E   E E E E E E E E   E E E E E E E E   E E E E Q   E E
|-------0-----3-2-|-----------------|-----------------|-----------------|
|-3-3-3---3-------|-5-5-3-5-3-------|-3-3-3-5-3-------|-----------------|
|-----------4-----|-----------4---4-|-----------4-5-4-|-2-2-2-4-2-----4-|
|-----------------|-------------5---|-----------------|-------------5---|
|-----------------|-----------------|-----------------|-----------------|
|-----------------|-----------------|-----------------|-----------------|


  G                 C       G                 D5        G
  W                 H       H         H       H         W
|-3---------------|---------3-------|-3---------------|-3--------------|
|-3---------------|-1-------3-------|-3-------3-------|-3--------------|
|-0---------------|-0-------0-------|-0-------2-------|-0--------------|
|-0---------------|-2-------0-------|-0-------0-------|-0--------------|
|-2---------------|-3-------2-------|-2---------------|-2--------------|
|-3---------------|---------3-------|-3---------------|-3--------------|
|
| E E E E E E E E   E E E E E E E E   E E E E E E E E   E E E E E E Q
|-----------------|-----------------|-----------------|----------------|
|-----------------|-----------------|-----------------|----------------|
|-----------------|-5-5-5-5---------|---------7-7-7-7-|----------------|
|-5-5-5-5-5-5-5-5-|-5-5-5-5-5-5-5-5-|-5-5-5-5-7-7-7-7-|-5-5-5-5-5-5-5--|
|-5-5-5-5-5-5-5-5-|-3-3-3-3-5-5-5-5-|-5-5-5-5-5-5-5-5-|-5-5-5-5-5-5-5--|
|-3-3-3-3-3-3-3-3-|---------3-3-3-3-|-3-3-3-3---------|-3-3-3-3-3-3-3--|
|
| E E E E E E E E   E E E E E E E E   E E E E E E E E   E E E E H
|-------0-----3-2-|-----------------|-----------------|----------------|
|-3-3-3---3-------|-5-5-3-5-3-------|-3-3-------------|----------------|
|-----------4-----|-----------4---4-|-----5-4-2-2-4-2-|-0-0-0-2-0------|
|-----------------|-------------5---|-----------------|----------------|
|-----------------|-----------------|-----------------|----------------|
|-----------------|-----------------|-----------------|----------------|


  G
  W                    +W
|-3------------------|-(3)-------------------|
|-3------------------|-(3)-------------------|
|-0------------------|-(0)-------------------|
|-0------------------|-(0)-------------------|
|-2------------------|-(2)-------------------|
|-3------------------|-(3)-------------------|
|
| E  E E E E E  E  E    E  E   E   E E E E E
|--------------------|-----------------------|
|--------------------|-----------------------|
|--------------------|-----------------------|
|-5--5-5-5-5-5--5--5-|--5--5---5---5-5-5-5-5-|
|-5--5-5-5-5-5--5--5-|--5--5---5---5-5-5-5-5-|
|-3--3-3-3-3-3--3--3-|--3--3---3---3-3-3-3-3-|
|
| H.           +E  E    E  S S S S Q   E Q
|--------------------|-----------------------|
|--------------------|-----------------------|
|--------------------|--4--4-5-4-2-4---0-----|
|-5------------(5)-5-|-------------------4---|
|--------------------|-----------------------|
|--------------------|-----------------------|


  E5
  W                 +W
|-----------------|----------------------|
|-5---------------|-(5)------------------|
|-4---------------|-(4)------------------|
|-2---------------|-(2)------------------|
|-2---------------|-(2)------------------|
|-0---------------|-(0)------------------|
|
| E E E E E E E E    E  E E E E E E   E
|-----------------|----------------------|
|-----------------|----------------------|
|-----------------|----------------------|
|-2-2-2-2-2-2-2-2-|--2--2-2-2-2-2-2---2--|
|-2-2-2-2-2-2-2-2-|--2--2-2-2-2-2-2---2--|
|-0-0-0-0-0-0-0-0-|--0--0-0-0-0-0-0---0--|
|
| W                  Q    Q   Q   S S E
|-----------------|----------------------|
|-----------------|----------------------|
|-----------------|----------------------|
|-2---------------|--2----4---5---4-5-4--|
|-----------------|----------------------|
|-----------------|----------------------|


  C
  W                 +W
|-----------------|---------------------|
|-1---------------|-(1)-----------------|
|-0---------------|-(0)-----------------|
|-2---------------|-(2)-----------------|
|-3---------------|-(3)-----------------|
|-----------------|---------------------|
|
| E E E E E E E E    E  E E E E E E   E
|-----------------|---------------------|
|-----------------|---------------------|
|-5-5-5-5-5-5-5-5-|--5--5-5-5-5-5-5---5-|
|-5-5-5-5-5-5-5-5-|--5--5-5-5-5-5-5---5-|
|-3-3-3-3-3-3-3-3-|--3--3-3-3-3-3-3---3-|
|-----------------|---------------------|
|
| W                  H.           S S E
|-----------------|---------------------|
|-----------------|---------------1-3-1-|
|-----------------|-/5------------------|
|-2---------------|---------------------|
|-----------------|---------------------|
|-----------------|---------------------|


  E5                   D
  W                    W
|--------------------|-2-----------------|
|-5------------------|-3-----------------|
|-4------------------|-2-----------------|
|-2------------------|-0-----------------|
|-2------------------|-------------------|
|-0------------------|-------------------|
|
| E  E E E E E E   E   E E E E E E E E
|--------------------|-------------------|
|--------------------|-------------------|
|--------------------|-7-7-7-7-7-7-7-7---|
|-2--2-2-2-2-2-2---2-|-7-7-7-7-7-7-7-7---|
|-2--2-2-2-2-2-2---2-|-5-5-5-5-5-5-5-5---|
|-0--0-0-0-0-0-0---0-|-------------------|
|
|                      ~
| H.           S S E   Q   Q   Q   Q
|--------------------|-------------------|
|-0------------0-1-0-|-----1---0---------|
|--------------------|-2-----------2-----|
|--------------------|-------------------|
|--------------------|-------------------|
|--------------------|-------------------|


  G                                     E5
  W                 +W                  W                 +W
|-3---------------|-(3)---------------|-----------------|-------------------|
|-3---------------|-(3)---------------|-5---------------|-(5)---------------|
|-0---------------|-(0)---------------|-4---------------|-(4)---------------|
|-0---------------|-(0)---------------|-2---------------|-(2)---------------|
|-2---------------|-(2)---------------|-2---------------|-(2)---------------|
|-3---------------|-(3)---------------|-0---------------|-(0)---------------|
|
| E E E E E E E E    E  E E E E E E E   E E E E E E E E    E  E E E E E E E
|-----------------|-------------------|-----------------|-------------------|
|-----------------|-------------------|-----------------|-------------------|
|-----------------|-------------------|-----------------|-------------------|
|-5-5-5-5-5-5-5-5-|--5--5-5-5-5-5-5-5-|-2-2-2-2-2-2-2-2-|--2--2-2-2-2-2-2-2-|
|-5-5-5-5-5-5-5-5-|--5--5-5-5-5-5-5-5-|-2-2-2-2-2-2-2-2-|--2--2-2-2-2-2-2-2-|
|-3-3-3-3-3-3-3-3-|--3--3-3-3-3-3-3-3-|-0-0-0-0-0-0-0-0-|--0--0-0-0-0-0-0-0-|
|
| ~                                     ~~~~~~~~~~~~~~~~~~~~~~
| W                  Q    Q   Q   Q     W                  W
|-----------------|-------------------|-----------------|-------------------|
|-----------------|-------------------|-----------------|-------------------|
|-----------------|--0----2---4---0---|-0---------------|-------------------|
|-5---------------|---------------5---|-2---------------|--2----------------|
|-----------------|-------------------|-----------------|-------------------|
|-----------------|-------------------|-----------------|--0----------------|


  C
    W                  +W
|-------------------|----------------------|
|---1---------------|--(1)-----------------|
|---0---------------|--(0)-----------------|
|---2---------------|--(2)-----------------|
|---3---------------|--(3)-----------------|
|-------------------|----------------------|
|
|   E E E E E E E E     E  E E E E E E   E
|-------------------|----------------------|
|-------------------|----------------------|
|---5-5-5-5-5-5-5-5-|---5--5-5-5-5-5-5---5-|
|---5-5-5-5-5-5-5-5-|---5--5-5-5-5-5-5---5-|
|---3-3-3-3-3-3-3-3-|---3--3-3-3-3-3-3---3-|
|-------------------|----------------------|
|
|   ~~~
|   W                  +H.           S S E
|-------------------|----------------------|
|-------------------|----------------1-3-1-|
|-------------------|----------------------|
|-/10---------------|-(10)-----------------|
|-------------------|----------------------|
|-------------------|----------------------|


  E5                   D
  W                    W
|--------------------|-2-----------------|
|-5------------------|-3-----------------|
|-4------------------|-2-----------------|
|-2------------------|-0-----------------|
|-2------------------|-------------------|
|-0------------------|-------------------|
|
| E  E E E E E E   E   E E E E E E E E
|--------------------|-------------------|
|--------------------|-------------------|
|--------------------|-7-7-7-7-7-7-7-7---|
|-2--2-2-2-2-2-2---2-|-7-7-7-7-7-7-7-7---|
|-2--2-2-2-2-2-2---2-|-5-5-5-5-5-5-5-5---|
|-0--0-0-0-0-0-0---0-|-------------------|
|
|                      ~
| H.           S S E   Q   Q   Q   Q
|--------------------|-------------------|
|-0------------0-1-0-|-----1---0---------|
|--------------------|-2-----------2-----|
|--------------------|-------------------|
|--------------------|-------------------|
|--------------------|-------------------|


  C                 G                 C                 D
  W                 W                 W                 W
|-----------------|-3---------------|-----------------|-2---------------------|
|-1---------------|-3---------------|-1---------------|-3---------------------|
|-0---------------|-0---------------|-0---------------|-2---------------------|
|-2---------------|-0---------------|-2---------------|-0---------------------|
|-3---------------|-2---------------|-3---------------|-----------------------|
|-----------------|-3---------------|-----------------|-----------------------|
|
| E E E E E E E E   E E E E E E E E   E E E E E E E E   E   E   E E E E E E
|-----------------|-----------------|-----------------|-----------------------|
|-----------------|-----------------|-----------------|-----------------------|
|-5-5-5-5-5-5-5-5-|-----------------|-5-5-5-5-5-5-5-5-|-7---7---7-7-7-7-7-7---|
|-5-5-5-5-5-5-5-5-|-5-5-5-5-5-5-5-5-|-5-5-5-5-5-5-5-5-|-7---7---7-7-7-7-7-7---|
|-3-3-3-3-3-3-3-3-|-5-5-5-5-5-5-5-5-|-3-3-3-3-3-3-3-3-|-5---5---5-5-5-5-5-5---|
|-----------------|-3-3-3-3-3-3-3-3-|-----------------|-----------------------|
|
| W                 E E E Q   E E E   Q   Q   Q   Q     S S S S E E E E E E
|-----------------|-----------------|-----------------|-----------------------|
|-----------------|-----------------|-----5---8---5---|-5-8-5-3-5---5-7-3-5---|
|-5---------------|-5-4-2-0---2-4-0-|-5---------------|-----------5-----------|
|-----------------|-----------------|-----------------|-----------------------|
|-----------------|-----------------|-----------------|-----------------------|
|-----------------|-----------------|-----------------|-----------------------|


  G       C         E5                G         D           G
  H       H         W                 H         H           W
|-3---------------|-----------------|-3---------2---------|-3---------------|
|-3-------1-------|-5---------------|-3---------3---------|-3---------------|
|-0-------0-------|-4---------------|-0---------2---------|-0---------------|
|-0-------2-------|-2---------------|-0---------0---------|-0---------------|
|-2-------3-------|-2---------------|-2-------------------|-2---------------|
|-3---------------|-0---------------|-3-------------------|-3---------------|
|
| E E E E E E E E   E E E E E E E E   E E E  E  E E  E  E   E E E E E E E E
|-----------------|-----------------|---------------------|-----------------|
|-----------------|-----------------|---------------------|-----------------|
|---------5-5-5-5-|-----------------|-----------7-7--7--7-|-----------------|
|-5-5-5-5-5-5-5-5-|-2-2-2-2-2-2-2-2-|-5-5-5--5--7-7--7--7-|-5-5-5-5-5-5-5-5-|
|-5-5-5-5-3-3-3-3-|-2-2-2-2-2-2-2-2-|-5-5-5--5--5-5--5--5-|-5-5-5-5-5-5-5-5-|
|-3-3-3-3---------|-0-0-0-0-0-0-0-0-|-3-3-3--3------------|-3-3-3-3-3-3-3-3-|
|
| Q   Q   Q   E E   E Q   Q   E E E   E Q   +E  Q   +E  E   W
|-----------------|-----------------|---------------------|-----------------|
|-8---7---5---3-3-|-5-3---0---0---0-|-0-3---(3)-0---(0)---|-----------------|
|-----------------|-------------2---|-------------------2-|-0---------------|
|-----------------|-----------------|---------------------|-----------------|
|-----------------|-----------------|---------------------|-----------------|
|-----------------|-----------------|---------------------|-----------------|


 Bridges Are Nice :-)
  C        D          G
   H        H         W
|-----------2-------|-3---------------|
|--1--------3-------|-3---------------|
|--0--------2-------|-0---------------|
|--2--------0-------|-0---------------|
|--3----------------|-2---------------|
|-------------------|-3---------------|
|
|  E E E E  E E E E   E E E E E E E E
|-------------------|-----------------|
|-------------------|-----------------|
|--5-5-5-5--7-7-7-7-|-----------------|
|--5-5-5-5--7-7-7-7-|-5-5-5-5-5-5-5-5-|
|--3-3-3-3--5-5-5-5-|-5-5-5-5-5-5-5-5-|
|-------------------|-3-3-3-3-3-3-3-3-|
|
|  H        H         W
|-------------------|-----------------|
|-/1-------/3-------|-0---------------|
|-------------------|-----------------|
|-------------------|-----------------|
|-------------------|-----------------|
|-------------------|-----------------|


  C        D          G
   H        H         W
|-----------2-------|-3---------------------|
|--1--------3-------|-3---------------------|
|--0--------2-------|-0---------------------|
|--2--------0-------|-0---------------------|
|--3----------------|-2---------------------|
|-------------------|-3---------------------|
|
|  E E E E  E E E E   E E E   E   E E E E
|-------------------|-----------------------|
|-------------------|-----------------------|
|--5-5-5-5--7-7-7-7-|-----------------------|
|--5-5-5-5--7-7-7-7-|-5-5-5---5---5-5-5-5---|
|--3-3-3-3--5-5-5-5-|-5-5-5---5---5-5-5-5---|
|-------------------|-3-3-3---3---3-3-3-3---|
|
|  H        H         Q   S S S S E E Q
|-------------------|-----------------------|
|-/1-------/3-------|-0---0-1-0---0---------|
|-------------------|-----------2---2-0-----|
|-------------------|-----------------------|
|-------------------|-----------------------|
|-------------------|-----------------------|


  C       D         G       C         Em7/C    D         G
  H       H         H       H          H       H         W
|---------2-------|-3---------------|----------2-------|-3---------------|
|-1-------3-------|-3-------1-------|--3-------3-------|-3---------------|
|-0-------2-------|-0-------0-------|--0-------2-------|-0---------------|
|-2-------0-------|-0-------2-------|--2-------0-------|-0---------------|
|-3---------------|-2-------3-------|--3---------------|-2---------------|
|-----------------|-3---------------|------------------|-3---------------|
|
| E E E E E E E E   E E E E E E E E    E E E E E E E E   E E E E E E E E
|-----------------|-----------------|------------------|-----------------|
|-----------------|-----------------|------------------|-----------------|
|-5-5-5-5-7-7-7-7-|---------5-5-5-5-|--5-5-5-5-7-7-7-7-|-----------------|
|-5-5-5-5-7-7-7-7-|-5-5-5-5-5-5-5-5-|--5-5-5-5-7-7-7-7-|-5-5-5-5-5-5-5-5-|
|-3-3-3-3-5-5-5-5-|-5-5-5-5-3-3-3-3-|--3-3-3-3-5-5-5-5-|-5-5-5-5-5-5-5-5-|
|-----------------|-3-3-3-3---------|------------------|-3-3-3-3-3-3-3-3-|
|
| ~~~~~~~~~~~~~~~~~~~~~~~~~~~~~~~~~~~~~~~~~~~~~~~~~~~~~~~~~
| H       H         H       H          H       H         W
|-----------------|-----------------|------------------|-----------------|
|-1---------------|-0---------------|-/0---------------|-----------------|
|---------2-------|---------0-------|----------2-------|-0---------------|
|-----------------|-----------------|------------------|-----------------|
|-----------------|-----------------|------------------|-----------------|
|-----------------|-----------------|------------------|-----------------|


  C                 G                 C                 D
  W                 W                 W                 W
|-----------------|-3---------------|-----------------|-2---------------------|
|-1---------------|-3---------------|-1---------------|-3---------------------|
|-0---------------|-0---------------|-0---------------|-2---------------------|
|-2---------------|-0---------------|-2---------------|-0---------------------|
|-3---------------|-2---------------|-3---------------|-----------------------|
|-----------------|-3---------------|-----------------|-----------------------|
|
| E E E E E E E E   E E E E E E E E   E E E E E E E E   E   E   E E E E E E
|-----------------|-----------------|-----------------|-----------------------|
|-----------------|-----------------|-----------------|-----------------------|
|-5-5-5-5-5-5-5-5-|-----------------|-5-5-5-5-5-5-5-5-|-7---7---7-7-7-7-7-7---|
|-5-5-5-5-5-5-5-5-|-5-5-5-5-5-5-5-5-|-5-5-5-5-5-5-5-5-|-7---7---7-7-7-7-7-7---|
|-3-3-3-3-3-3-3-3-|-5-5-5-5-5-5-5-5-|-3-3-3-3-3-3-3-3-|-5---5---5-5-5-5-5-5---|
|-----------------|-3-3-3-3-3-3-3-3-|-----------------|-----------------------|
|
| W                 E E E Q   E E E   Q   Q   Q   Q     S S S S E E E E E E
|-----------------|-----------------|-----0---3---0---|-----------------------|
|-1---------------|-1-0---------0---|-1---------------|-5-8-5-3-5---5-7-3-5---|
|-----------------|-----2-0---2---0-|-----------------|-----------5-----------|
|-----------------|-----------------|-----------------|-----------------------|
|-----------------|-----------------|-----------------|-----------------------|
|-----------------|-----------------|-----------------|-----------------------|


  G       C         E5                G         D           G
  H       H         W                 H         H           H.           E E
|-3---------------|-----------------|-3---------2---------|-3----------------|
|-3-------1-------|-5---------------|-3---------3---------|-3----------------|
|-0-------0-------|-4---------------|-0---------2---------|-0--------------4-|
|-0-------2-------|-2---------------|-0---------0---------|-0------------5---|
|-2-------3-------|-2---------------|-2-------------------|-2----------------|
|-3---------------|-0---------------|-3-------------------|-3----------------|
|
| E E E E E E E E   E E E E E E E E   E E E  E  E E  E  E   E  E E E E E E E
|-----------------|-----------------|---------------------|------------------|
|-----------------|-----------------|---------------------|------------------|
|---------5-5-5-5-|-----------------|-----------7-7--7--7-|------------------|
|-5-5-5-5-5-5-5-5-|-2-2-2-2-2-2-2-2-|-5-5-5--5--7-7--7--7-|-5--5-5-5-5-5-5-5-|
|-5-5-5-5-3-3-3-3-|-2-2-2-2-2-2-2-2-|-5-5-5--5--5-5--5--5-|-5--5-5-5-5-5-5-5-|
|-3-3-3-3---------|-0-0-0-0-0-0-0-0-|-3-3-3--3------------|-3--3-3-3-3-3-3-3-|
|
|                                                           ~~
| Q   Q   Q   E E   E Q   Q   E E E   E Q   +E  Q   +E  E   W
|-----------------|-----------------|---------------------|------------------|
|-8---7---5---3-3-|-5-3---0---0---0-|-0-3---(3)-0---(0)---|------------------|
|-----------------|-------------2---|-------------------2-|-0----------------|
|-----------------|-----------------|---------------------|------------------|
|-----------------|-----------------|---------------------|------------------|
|-----------------|-----------------|---------------------|------------------|


 Dun dun dun diddy dun...
  G5
   E  S S E E E E E E   S S S S E E E E E E
|-----------0-----3-2-|---------------------|
|--3--3-3-3---3-------|-5-5-5-5-3-5-3-------|
|---------------4-----|---------------4---4-|
|---------------------|-----------------5---|
|---------------------|---------------------|
|---------------------|---------------------|
|
| +W                    q       Q   Q   Q
|---------------------|---------------------|
|---------------------|---------------------|
|---------------------|---------------------|
|-(5)-----------------|-5-------------------|
|-(5)-----------------|-5-------------------|
|-(3)-----------------|-3-------------------|
|
|  W                    W
|---------------------|---------------------|
|---------------------|---------------------|
|---------------------|---------------------|
|---------------------|---------------------|
|---------------------|---------------------|
|---------------------|---------------------|


  N.C.
  E S S E E E E E E   S  S S S E E Q  E E
|-------------------|---------------------|
|-3-3-3-3-5-3-------|---------------------|
|-------------4-5-4-|-2--2-2-2-2-4-2----4-|
|-------------------|-----------------5---|
|-------------------|---------------------|
|-------------------|---------------------|
|
| W                   W
|-------------------|---------------------|
|-------------------|---------------------|
|-------------------|---------------------|
|-------------------|---------------------|
|-------------------|---------------------|
|-------------------|---------------------|
|
| W                   H.              E E
|-------------------|---------------------|
|-------------------|---------------------|
|-------------------|-------------------4-|
|-------------------|-----------------5---|
|-------------------|---------------------|
|-------------------|---------------------|


  E S S E E E E E E   S S S S E E E E E E
|---------0-----3-2-|---------------------|
|-3-3-3-3---3-------|-5-5-5-5-3-5-3-------|
|-------------4-----|---------------4---4-|
|-------------------|-----------------5---|
|-------------------|---------------------|
|-------------------|---------------------|
|
| W                   W
|-------------------|---------------------|
|-------------------|---------------------|
|-------------------|---------------------|
|-------------------|---------------------|
|-------------------|---------------------|
|-------------------|---------------------|
|
| E S S E E E E E E   S S S S E E E E E E
|---------0-----3-2-|---------------------|
|-3-3-3-3---3-------|-5-5-5-5-3-5-3-------|
|-------------4-----|---------------4---4-|
|-------------------|-----------------5---|
|-------------------|---------------------|
|-------------------|---------------------|


  E S S E E E S S E E   S S S S E E H
|---------------------|----------------------|
|-3-3-3---------------|----------------------|
|-------5-4-2-2-2-4-2-|-0-0-0-0-0-2-0--------|
|---------------------|----------------------|
|---------------------|----------------------|
|---------------------|----------------------|
|
| W                     W
|---------------------|----------------------|
|---------------------|----------------------|
|---------------------|----------------------|
|---------------------|----------------------|
|---------------------|----------------------|
|---------------------|----------------------|
|
| E S S E E E S S E E   S S S S E E Q  E E
|---------------------|----------------------|
|-3-3-3---------------|----------------------|
|-------5-4-2-2-2-4-2-|-0-0-0-0-0-2-0----4---|
|---------------------|----------------5-----|
|---------------------|----------------------|
|---------------------|----------------------|


  G                 C       G                           D
  W                 H       H         W                 W
|-3---------------|---------3-------|-3---------------|-2---------------|
|-3---------------|-1-------3-------|-3---------------|-3---------------|
|-0---------------|-0-------0-------|-0---------------|-2---------------|
|-0---------------|-2-------0-------|-0---------------|-0---------------|
|-2---------------|-3-------2-------|-2---------------|-----------------|
|-3---------------|---------3-------|-3---------------|-----------------|
|
| E E E E E E E E   E E E E E E E E   E E E E E E E E   E E E E E E E E
|-----------------|-----------------|-----------------|-----------------|
|-----------------|-----------------|-----------------|-----------------|
|-----------------|-5-5-5-5---------|-----------------|-7-7-7-7-7-7-7-7-|
|-5-5-5-5-5-5-5-5-|-5-5-5-5-5-5-5-5-|-5-5-5-5-5-5-5-5-|-7-7-7-7-7-7-7-7-|
|-5-5-5-5-5-5-5-5-|-3-3-3-3-5-5-5-5-|-5-5-5-5-5-5-5-5-|-5-5-5-5-5-5-5-5-|
|-3-3-3-3-3-3-3-3-|---------3-3-3-3-|-3-3-3-3-3-3-3-3-|-----------------|
|
| E E E E E E E E   E E E E E E E E   E E E E E E E E   E E E E Q   E E
|-------0-----3-2-|-----------------|-----------------|-----------------|
|-3-3-3---3-------|-5-5-3-5-3-------|-3-3-3-5-3-------|-----------------|
|-----------4-----|-----------4---4-|-----------4-5-4-|-2-2-2-4-2-----4-|
|-----------------|-------------5---|-----------------|-------------5---|
|-----------------|-----------------|-----------------|-----------------|
|-----------------|-----------------|-----------------|-----------------|


  G                 C       G                 D5        G
  W                 H       H         H       H         W
|-3---------------|---------3-------|-3---------------|-3--------------|
|-3---------------|-1-------3-------|-3-------3-------|-3--------------|
|-0---------------|-0-------0-------|-0-------2-------|-0--------------|
|-0---------------|-2-------0-------|-0-------0-------|-0--------------|
|-2---------------|-3-------2-------|-2---------------|-2--------------|
|-3---------------|---------3-------|-3---------------|-3--------------|
|
| E E E E E E E E   E E E E E E E E   E E E E E E E E   E E E E E E Q
|-----------------|-----------------|-----------------|----------------|
|-----------------|-----------------|-----------------|----------------|
|-----------------|-5-5-5-5---------|---------7-7-7-7-|----------------|
|-5-5-5-5-5-5-5-5-|-5-5-5-5-5-5-5-5-|-5-5-5-5-7-7-7-7-|-5-5-5-5-5-5-5--|
|-5-5-5-5-5-5-5-5-|-3-3-3-3-5-5-5-5-|-5-5-5-5-5-5-5-5-|-5-5-5-5-5-5-5--|
|-3-3-3-3-3-3-3-3-|---------3-3-3-3-|-3-3-3-3---------|-3-3-3-3-3-3-3--|
|
| E E E E E E E E   E E E E E E E E   E E E E E E E E   E E E E H
|-------0-----3-2-|-----------------|-----------------|----------------|
|-3-3-3---3-------|-5-5-3-5-3-------|-3-3-------------|----------------|
|-----------4-----|-----------4---4-|-----5-4-2-2-4-2-|-0-0-0-2-0------|
|-----------------|-------------5---|-----------------|----------------|
|-----------------|-----------------|-----------------|----------------|
|-----------------|-----------------|-----------------|----------------|


 Sorta the Chorus.....
  C                 G                  C                 D
  W                 W                  W                  W
|-----------------|-3----------------|-----------------|--2----------------|
|-1---------------|-3----------------|-1---------------|--3----------------|
|-0---------------|-0----------------|-0---------------|--2----------------|
|-2---------------|-0----------------|-2---------------|--0----------------|
|-3---------------|-2----------------|-3---------------|-------------------|
|-----------------|-3----------------|-----------------|-------------------|
|
| E E E E E E E E   E  E E E E E E E   E E E E E E E E    E  E E E E E E E
|-----------------|------------------|-----------------|-------------------|
|-----------------|------------------|-----------------|-------------------|
|-5-5-5-5-5-5-5-5-|------------------|-5-5-5-5-5-5-5-5-|--7--7-7-7-7-7-7-7-|
|-5-5-5-5-5-5-5-5-|-5--5-5-5-5-5-5-5-|-5-5-5-5-5-5-5-5-|--7--7-7-7-7-7-7-7-|
|-3-3-3-3-3-3-3-3-|-5--5-5-5-5-5-5-5-|-3-3-3-3-3-3-3-3-|--5--5-5-5-5-5-5-5-|
|-----------------|-3--3-3-3-3-3-3-3-|-----------------|-------------------|
|
| Q   E E Q   E E   Q.     E E E E E   Q   E E Q   Q      Q.     E Q   E E
|-----------------|------------------|-----------------|-/5------7-5-------|
|-8---8-7-5---3-3-|-5------3-5-3-0-3-|-8---8-7-5---8---|---------------5-7-|
|-----------------|------------------|-----------------|-------------------|
|-----------------|------------------|-----------------|-------------------|
|-----------------|------------------|-----------------|-------------------|
|-----------------|------------------|-----------------|-------------------|


  G       C         E5                G         D           G
  H       H         W                 H         H           W
|-3---------------|-----------------|-3---------2---------|-3---------------|
|-3-------1-------|-5---------------|-3---------3---------|-3---------------|
|-0-------0-------|-4---------------|-0---------2---------|-0---------------|
|-0-------2-------|-2---------------|-0---------0---------|-0---------------|
|-2-------3-------|-2---------------|-2-------------------|-2---------------|
|-3---------------|-0---------------|-3-------------------|-3---------------|
|
| E E E E E E E E   E E E E E E E E   E E E  E  E E  E  E   E E E E E E E E
|-----------------|-----------------|---------------------|-----------------|
|-----------------|-----------------|---------------------|-----------------|
|---------5-5-5-5-|-----------------|-----------7-7--7--7-|-----------------|
|-5-5-5-5-5-5-5-5-|-2-2-2-2-2-2-2-2-|-5-5-5--5--7-7--7--7-|-5-5-5-5-5-5-5-5-|
|-5-5-5-5-3-3-3-3-|-2-2-2-2-2-2-2-2-|-5-5-5--5--5-5--5--5-|-5-5-5-5-5-5-5-5-|
|-3-3-3-3---------|-0-0-0-0-0-0-0-0-|-3-3-3--3------------|-3-3-3-3-3-3-3-3-|
|
| Q   Q   Q   E E   E Q   Q   E E E   E Q   +E  Q   +E  E   W
|-3---2---0-------|-0---------------|---------------------|-----------------|
|-------------3-3-|---3---0---0---0-|-0-3---(3)-0---(0)---|-----------------|
|-----------------|-------------2---|-------------------2-|-0---------------|
|-----------------|-----------------|---------------------|-----------------|
|-----------------|-----------------|---------------------|-----------------|
|-----------------|-----------------|---------------------|-----------------|


  G
  W                    +W
|-3------------------|-(3)-------------------|
|-3------------------|-(3)-------------------|
|-0------------------|-(0)-------------------|
|-0------------------|-(0)-------------------|
|-2------------------|-(2)-------------------|
|-3------------------|-(3)-------------------|
|
| E  E E E E E  E  E    E  E   E   E E E E E
|--------------------|-----------------------|
|--------------------|-----------------------|
|--------------------|-----------------------|
|-5--5-5-5-5-5--5--5-|--5--5---5---5-5-5-5-5-|
|-5--5-5-5-5-5--5--5-|--5--5---5---5-5-5-5-5-|
|-3--3-3-3-3-3--3--3-|--3--3---3---3-3-3-3-3-|
|
| H.           +E  E    E  S S S S Q   E Q
|--------------------|-----------------------|
|--------------------|-----------------------|
|--------------------|--4--4-5-4-2-4---0-----|
|-5------------(5)-5-|-------------------4---|
|--------------------|-----------------------|
|--------------------|-----------------------|


  E5
  W                 +W
|-----------------|---------------------|
|-5---------------|-(5)-----------------|
|-4---------------|-(4)-----------------|
|-2---------------|-(2)-----------------|
|-2---------------|-(2)-----------------|
|-0---------------|-(0)-----------------|
|
| E E E E E E E E    E  E E E E E E E
|-----------------|---------------------|
|-----------------|---------------------|
|-----------------|---------------------|
|-2-2-2-2-2-2-2-2-|--2--2-2-2-2-2-2-2---|
|-2-2-2-2-2-2-2-2-|--2--2-2-2-2-2-2-2---|
|-0-0-0-0-0-0-0-0-|--0--0-0-0-0-0-0-0---|
|
| W                  Q    Q   Q   Q
|-----------------|--0----2---3---2-----|
|-----------------|---------------------|
|-----------------|---------------------|
|-2---------------|---------------------|
|-----------------|---------------------|
|-----------------|---------------------|


  C
  W                 +W
|-----------------|---------------------|
|-1---------------|-(1)-----------------|
|-0---------------|-(0)-----------------|
|-2---------------|-(2)-----------------|
|-3---------------|-(3)-----------------|
|-----------------|---------------------|
|
| E E E E E E E E    E  E E E E E E   E
|-----------------|---------------------|
|-----------------|---------------------|
|-5-5-5-5-5-5-5-5-|--5--5-5-5-5-5-5---5-|
|-5-5-5-5-5-5-5-5-|--5--5-5-5-5-5-5---5-|
|-3-3-3-3-3-3-3-3-|--3--3-3-3-3-3-3---3-|
|-----------------|---------------------|
|
| ~~~~~~~~~~~~~~~~~~~~~~
| W                  H.           S S E
|-----------------|---------------------|
|-----------------|---------------------|
|-9---------------|-/5------------5-7-5-|
|-----------------|---------------------|
|-----------------|---------------------|
|-----------------|---------------------|


  E5                   D
  W                    W
|--------------------|-2-----------------|
|-5------------------|-3-----------------|
|-4------------------|-2-----------------|
|-2------------------|-0-----------------|
|-2------------------|-------------------|
|-0------------------|-------------------|
|
| E  E E E E E E   E   E E E E E E E E
|--------------------|-------------------|
|--------------------|-------------------|
|--------------------|-7-7-7-7-7-7-7-7---|
|-2--2-2-2-2-2-2---2-|-7-7-7-7-7-7-7-7---|
|-2--2-2-2-2-2-2---2-|-5-5-5-5-5-5-5-5---|
|-0--0-0-0-0-0-0---0-|-------------------|
|
| ~~                   ~
| H.           S S E   Q   Q   Q   Q
|--------------------|-------------------|
|--------------------|-------------------|
|-4------------4-5-4-|-2---5---4---2-----|
|--------------------|-------------------|
|--------------------|-------------------|
|--------------------|-------------------|


  G                                     E5
  W                 +W                  W                 +W
|-3---------------|-(3)---------------|-----------------|-------------------|
|-3---------------|-(3)---------------|-5---------------|-(5)---------------|
|-0---------------|-(0)---------------|-4---------------|-(4)---------------|
|-0---------------|-(0)---------------|-2---------------|-(2)---------------|
|-2---------------|-(2)---------------|-2---------------|-(2)---------------|
|-3---------------|-(3)---------------|-0---------------|-(0)---------------|
|
| E E E E E E E E    E  E E E E E E E   E E E E E E E E    E  E E E E E E E
|-----------------|-------------------|-----------------|-------------------|
|-----------------|-------------------|-----------------|-------------------|
|-----------------|-------------------|-----------------|-------------------|
|-5-5-5-5-5-5-5-5-|--5--5-5-5-5-5-5-5-|-2-2-2-2-2-2-2-2-|--2--2-2-2-2-2-2-2-|
|-5-5-5-5-5-5-5-5-|--5--5-5-5-5-5-5-5-|-2-2-2-2-2-2-2-2-|--2--2-2-2-2-2-2-2-|
|-3-3-3-3-3-3-3-3-|--3--3-3-3-3-3-3-3-|-0-0-0-0-0-0-0-0-|--0--0-0-0-0-0-0-0-|
|
| W                  Q    Q   Q   Q     W                  Q    Q   Q   Q
|-----------------|-------------------|-----------------|-------------------|
|-----------------|---------------7---|-8---------------|--5----7---8---7---|
|-----------------|-------4---7-------|-----------------|-------------------|
|-5---------------|--5----------------|-----------------|-------------------|
|-----------------|-------------------|-----------------|-------------------|
|-----------------|-------------------|-----------------|-------------------|


  C
  W                 +W
|-----------------|---------------------|
|-1---------------|-(1)-----------------|
|-0---------------|-(0)-----------------|
|-2---------------|-(2)-----------------|
|-3---------------|-(3)-----------------|
|-----------------|---------------------|
|
| E E E E E E E E    E  E E E E E E   E
|-----------------|---------------------|
|-----------------|---------------------|
|-5-5-5-5-5-5-5-5-|--5--5-5-5-5-5-5---5-|
|-5-5-5-5-5-5-5-5-|--5--5-5-5-5-5-5---5-|
|-3-3-3-3-3-3-3-3-|--3--3-3-3-3-3-3---3-|
|-----------------|---------------------|
|
| ~~~~~~~~~~~~~~~~~~~~~~
| W                  H.           S S E
|-----------------|---------------------|
|-----------------|---------------------|
|-9---------------|-/5------------5-7-5-|
|-----------------|---------------------|
|-----------------|---------------------|
|-----------------|---------------------|


  E5                   D
  W                    W
|--------------------|-2-----------------|
|-5------------------|-3-----------------|
|-4------------------|-2-----------------|
|-2------------------|-0-----------------|
|-2------------------|-------------------|
|-0------------------|-------------------|
|
| E  E E E E E E   E   E E E E E E E E
|--------------------|-------------------|
|--------------------|-------------------|
|--------------------|-7-7-7-7-7-7-7-7---|
|-2--2-2-2-2-2-2---2-|-7-7-7-7-7-7-7-7---|
|-2--2-2-2-2-2-2---2-|-5-5-5-5-5-5-5-5---|
|-0--0-0-0-0-0-0---0-|-------------------|
|
| ~~                   ~
| H.           S S E   Q   Q   Q   Q
|--------------------|-------------------|
|--------------------|-------------------|
|-4------------4-5-4-|-2---5---4---2-----|
|--------------------|-------------------|
|--------------------|-------------------|
|--------------------|-------------------|


  C                 G                 C                 D
  W                 W                 W                 W
|-----------------|-3---------------|-----------------|-2---------------------|
|-1---------------|-3---------------|-1---------------|-3---------------------|
|-0---------------|-0---------------|-0---------------|-2---------------------|
|-2---------------|-0---------------|-2---------------|-0---------------------|
|-3---------------|-2---------------|-3---------------|-----------------------|
|-----------------|-3---------------|-----------------|-----------------------|
|
| E E E E E E E E   E E E E E E E E   E E E E E E E E   E   E   E E E E E E
|-----------------|-----------------|-----------------|-----------------------|
|-----------------|-----------------|-----------------|-----------------------|
|-5-5-5-5-5-5-5-5-|-----------------|-5-5-5-5-5-5-5-5-|-7---7---7-7-7-7-7-7---|
|-5-5-5-5-5-5-5-5-|-5-5-5-5-5-5-5-5-|-5-5-5-5-5-5-5-5-|-7---7---7-7-7-7-7-7---|
|-3-3-3-3-3-3-3-3-|-5-5-5-5-5-5-5-5-|-3-3-3-3-3-3-3-3-|-5---5---5-5-5-5-5-5---|
|-----------------|-3-3-3-3-3-3-3-3-|-----------------|-----------------------|
|
| W                 E E E Q   E E E   Q   Q   Q   Q     S S S S E E E E E E
|-----------------|-----------------|-----------------|-----------------------|
|-----------------|-----------------|-----5---8---5---|-5-8-5-3-5---5-7-3-5---|
|-5---------------|-5-4-2-0---2-4-0-|-5---------------|-----------5-----------|
|-----------------|-----------------|-----------------|-----------------------|
|-----------------|-----------------|-----------------|-----------------------|
|-----------------|-----------------|-----------------|-----------------------|


  G        C         E5                G         D           G
  H        H         W                 H         H           W
|-3----------------|-----------------|-3---------2---------|-3----------------|
|-3--------1-------|-5---------------|-3---------3---------|-3----------------|
|-0--------0-------|-4---------------|-0---------2---------|-0----------------|
|-0--------2-------|-2---------------|-0---------0---------|-0----------------|
|-2--------3-------|-2---------------|-2-------------------|-2----------------|
|-3----------------|-0---------------|-3-------------------|-3----------------|
|
| E E  E E E E E E   E E E E E E E E   E E E  E  E E  E  E   E  E E E E E E E
|------------------|-----------------|---------------------|------------------|
|------------------|-----------------|---------------------|------------------|
|----------5-5-5-5-|-----------------|-----------7-7--7--7-|------------------|
|-5-5--5-5-5-5-5-5-|-2-2-2-2-2-2-2-2-|-5-5-5--5--7-7--7--7-|-5--5-5-5-5-5-5-5-|
|-5-5--5-5-3-3-3-3-|-2-2-2-2-2-2-2-2-|-5-5-5--5--5-5--5--5-|-5--5-5-5-5-5-5-5-|
|-3-3--3-3---------|-0-0-0-0-0-0-0-0-|-3-3-3--3------------|-3--3-3-3-3-3-3-3-|
|
| Q    Q   Q   E E   E Q   Q   E E E   E Q   +E  Q   +E  E   H.           E E
|------------------|-----------------|---------------------|------------------|
|-8----------------|-----------------|---------------------|--------------3-5-|
|-----11---9---7-7-|-9-7---4---4-2-4-|-4-7---(7)-4---(4)-2-|-0----------------|
|------------------|-----------------|---------------------|------------------|
|------------------|-----------------|---------------------|------------------|
|------------------|-----------------|---------------------|------------------|


  G        C         E5                G                    D
  H        H         W                 W                    W
|-3----------------|-----------------|-3------------------|-2----------------|
|-3--------1-------|-5---------------|-3------------------|-3----------------|
|-0--------0-------|-4---------------|-0------------------|-2----------------|
|-0--------2-------|-2---------------|-0------------------|-0----------------|
|-2--------3-------|-2---------------|-2------------------|------------------|
|-3----------------|-0---------------|-3------------------|------------------|
|
| E E  E E E E E E   E E E E E E E E   E E  E E E E E  E    E  E E E E E E E
|------------------|-----------------|--------------------|------------------|
|------------------|-----------------|--------------------|------------------|
|----------5-5-5-5-|-----------------|--------------------|-7--7-7-7-7-7-7-7-|
|-5-5--5-5-5-5-5-5-|-2-2-2-2-2-2-2-2-|-5-5--5-5-5-5-5--5--|-7--7-7-7-7-7-7-7-|
|-5-5--5-5-3-3-3-3-|-2-2-2-2-2-2-2-2-|-5-5--5-5-5-5-5--5--|-5--5-5-5-5-5-5-5-|
|-3-3--3-3---------|-0-0-0-0-0-0-0-0-|-3-3--3-3-3-3-3--3--|------------------|
|
|                                                           \1
| Q    Q   Q   E E   E Q   Q   E E E   E H.           +E    H.           E E
|------------------|-----------------|--------------------|------------------|
|-8----------------|-----------------|--------------------|--------------3-5-|
|-----11---9---7-7-|-9-7---4---4-2-4-|-4-7------------(7)-|-4----------------|
|------------------|-----------------|--------------------|------------------|
|------------------|-----------------|--------------------|------------------|
|------------------|-----------------|--------------------|------------------|


  G       C         E5                G         D
  H       H         W                 H         H
|-3---------------|-----------------|-3---------2---------|
|-3-------1-------|-5---------------|-3---------3---------|
|-0-------0-------|-4---------------|-0---------2---------|
|-0-------2-------|-2---------------|-0---------0---------|
|-2-------3-------|-2---------------|-2-------------------|
|-3---------------|-0---------------|-3-------------------|
|
| E E E E E E E E   E E E E E E E E   E E E  E  E E  E  E
|-----------------|-----------------|---------------------|
|-----------------|-----------------|---------------------|
|---------5-5-5-5-|-----------------|-----------7-7--7--7-|
|-5-5-5-5-5-5-5-5-|-2-2-2-2-2-2-2-2-|-5-5-5--5--7-7--7--7-|
|-5-5-5-5-3-3-3-3-|-2-2-2-2-2-2-2-2-|-5-5-5--5--5-5--5--5-|
|-3-3-3-3---------|-0-0-0-0-0-0-0-0-|-3-3-3--3------------|
|
| Q   Q   Q   E E   E Q   Q   E E E   E Q   +E  Q   +E  E
|-----------------|-----------------|---------------------|
|-8---7-----------|-----------------|---------------------|
|---------9---7-7-|-9-7---4---4-2-4-|-4-7---(7)-4---(4)-2-|
|-----------------|-----------------|---------------------|
|-----------------|-----------------|---------------------|
|-----------------|-----------------|---------------------|


  G
 3/4
  E    E     E     E     Q     H.          +H.     3x
|-3----3-----3-----3-----3---|-3-------||--(3)-----||
|-3----3-----3-----3-----3---|-3-------||o-(3)----o||
|-0---(0)---(0)---(0)---(0)--|-0-------||--(0)-----||
|-0---(0)---(0)---(0)---(0)--|-0-------||--(0)-----||
|-2---(2)---(2)---(2)---(2)--|-2-------||o-(2)----o||
|-3---(3)---(3)---(3)---(3)--|-3-------||--(3)-----||
|
| S S  S  S  S  S  S  S  Q     H.          +H.     3x
|----------------------------|-3-------||--(3)-----||
|------------------5--7--8---|-x-------||o-(x)----o||
|---------0--5--7------------|-x-------||--(x)-----||
|-0-2--4---------------------|-5-------||--(5)-----||
|----------------------------|-5-------||o-(5)----o||
|----------------------------|-3-------||--(3)-----||
|
| S S  S  S  S  S  S  S  Q     H.          +H.     3x
|----------------------------|---------||----------||
|------------------5--7--8---|---------||o--------o||
|---------0--5--7------------|-0-------||--(0)-----||
|-0-2--4---------------------|-5-------||--(5)-----||
|----------------------------|---------||o--------o||
|----------------------------|---------||----------||



Duration Legend
---------------
W - whole; H - half; Q - quarter; E - 8th; S - 16th; T - 32nd; X - 64th; a - acciaccatura
+ - note tied to previous; . - note dotted; .. - note double dotted
Uncapitalized letters represent notes that are staccato (1/2 duration)
Irregular groupings are notated above the duration line
Duration letters will always appear directly above the note/fret number it represents the
duration for.  Duration letters with no fret number below them represent rests.  Multi-
bar rests are notated in the form Wxn, where n is the number of bars to rest for.  Low
melody durations appear below the staff

Tablature Legend
----------------
 h   - hammer-on
 p   - pull-off
 b   - bend
 pb  - pre-bend
 r   - bend release (if no number after the r, then release immediately)
 /\  - slide into or out of (from/to "nowhere")
 s   - legato slide
 S   - shift slide
<n> - natural harmonic
[n]  - artificial harmonic
n(n) - tapped harmonic
 ~   - vibrato
 tr  - trill
 T   - tap
 TP  - trem. picking
 PM  - palm muting
\n/  - tremolo bar dip; n = amount to dip
 \n  - tremolo bar down
 n/  - tremolo bar up
/n\  - tremolo bar inverted dip
 =   - hold bend; also acts as connecting device for hammers/pulls
 <> - volume swell (louder/softer)
 x   - on rhythm slash represents muted slash
 o   - on rhythm slash represents single note slash

Misc Legend
-----------
 |  - bar
||  - double bar
||o - repeat start
o|| - repeat end
*|  - double bar (ending)
 :  - bar (freetime)
 $  - Segno
 &  - Coda
Tempo markers - <E/E./Q/Q./H/H.> = BPM(8/16=s8/s16), where s8 = swing 8ths, s16 = swing 16ths

comments
print report bad tab
2 comments total.
0 reply
willisiscool wrote on February 15 2010, 10:33 pm

your "twangy guitar" is a banjo, and your tab is to long. acurate, but to long.

0 reply
gunners fan wrote on August 25 2010, 11:45 pm

Your "Twangy Guitar" is a Banjo but it does work on guitar remarkabley well! & if you wanna get technical the "violin" is technically a fiddle! Great Tab though! 6 stars outta 5 :D though it could use some summarising I just printed all 19 pages of it! lol

I want to post or [tab]
guest
You may want to rate the tab now too:
select rating
Please do not post tabs as comments. Select "correction" instead!