Oops, an error
Loading. Please wait.

Salty Dog Tab

17,565 views 27 this week
no commentswrite comment
1 2 3 4 5
excellent!
x 2
Autoscroll
+/-
esc
set tempo
stop
Contributor
WARNING: You are trying to view
                                    content from Ultimate-Guitar.com
                                    in an unauthorized application,
                                    which is prohibited.

                                    Please use an official Ultimate
                                    Guitar Tabs application for iPhone,
                                    iPad or Android to access legitimate
                                    chords, guitar, bass, and drum tabs
                                    from Ultimate-Guitar.com database.

                                    Type "ultimate guitar tabs" in Apple
                                    App Store's or Android Market's
                                    search to find the application.
#----------------------------------PLEASE NOTE---------------------------------#
#This file is the author's own work and represents their interpretation of the #
#song. You may only use this file for private study, scholarship, or research. #
#------------------------------------------------------------------------------#

SALTY DOG
As recorded by Flogging Molly
(From the 2004 Album SWAGGER)

Transcribed by sprinklerthief
	

Words by Dave King Music by Flogging Molly

G
3 2 0 0 3 3
	
D
x x 0 2 3 2
	
C
x 3 2 0 1 0
	
G(type 2)
0 0 2 3

C(type 2)
5 2 3 0
	
D(type 2)
x 0 0 2
	
GV
0 5 5 7
	
CV
5 5 7 8

DV
7 7 9 5

Gtr I (E A D G B E) - 'fiddle arr. for guitar'
Gtr II (E A D G B E) - 'acous.'
Gtr III (E A D G B E) - 'dist.'
Gtr IV (E A D G B E) - 'accordian arr.. for guitar'
Gtr V (E A D G B E) - 'mandolin arr. for guitar'

 Intro
     Fast Punk Q=160
     G                         D
 1/4     4/4
     Gtr II
  E.  S    E. S  S S    S    S  E.          S  S S    S    S
|-----x-|--3--3--3-3----3----3--2-----------2--2-2----2----2-|
|-----x-|--3--3--3-3----3----3--3-----------3--3-3----3----3-|
|-----0-|--0--0--0-0----0----0--2-----------2--2-2----2----2-|
|-----x-|--0--0--0-0----0----0--0-----------0--0-0----0----0-|
|-----x-|--2--2--2-2----2------------------------------------|
|-----3-|--3--3--3-3----3------------------------------------|
|
|    Gtr I
|                |----3----|    |---3----|     |----3----|
| E.  S    Q     E    E    E    E   E    E     E    E    E
|-------|-----------------------------------------------10---|
|-------|------------10---12---10s=12s==10----10---12--------|
|-------|-12----12-------------------------------------------|
|----12-|----------------------------------------------------|
|-------|----------------------------------------------------|
|-------|----------------------------------------------------|
|
|    Gtrs IV, V
|                |----3----|    |---3----|     |----3----|
| E.  S    Q     E    E    E    E  +E   +E     E    E    E
|-------|-----------------------------------------------10---|
|-------|------------10---12---10-(10)-(10)---10---12--------|
|-------|-12----12-------------------------------------------|
|----12-|----------------------------------------------------|
|-------|----------------------------------------------------|
|-------|----------------------------------------------------|


  C
   |--3--|  |--3--|  |--3--|  |--3--|
   E  E  E  E  E  E  E  E  E  E  E  E
|--0--0--0--0--0--0--0--0--0--0--0--0--|
|--1--1--1--1--1--1--1--1--1--1--1--1--|
|--0--0--0--0--0--0--0--0--0--0--0--0--|
|--2--2--2--2--2--2--2--2--2--2--2-----|
|--3--3--3--3--3--3--3--3--3--3--3-----|
|--------------------------------------|
|
|  |--3--|  |--3--|  |--3--|  |--3--|
|  E  E  E  E  E  E  E  E  E  E  E  E
|-12-10-10-15-10-10-12-10----10--------|
|-------------------------12----12-10--|
|--------------------------------------|
|--------------------------------------|
|--------------------------------------|
|--------------------------------------|
|
|  |--3--|  |--3--|  |--3--|  |--3--|
|  E  E  E  E  E  E  E  E  E  E  E  E
|-12-10-10-15-10-10-12-10----10--------|
|-------------------------12----12-10--|
|--------------------------------------|
|--------------------------------------|
|--------------------------------------|
|--------------------------------------|


  G                    D
   E. S  S S    S    S  E.          S  S S    S    S
|--3--3--3-3----3----3--2-----------2--2-2----2----2-|
|--3--3--3-3----3----3--3-----------3--3-3----3----3-|
|--0--0--0-0----0----0--2-----------2--2-2----2----2-|
|--0--0--0-0----0----0--0-----------0--0-0----0----0-|
|--2--2--2-2----2------------------------------------|
|--3--3--3-3----3------------------------------------|
|
|        |----3----|    |---3----|     |----3----|
|  Q     E    E    E    E   E    E     E    E    E
|-----------------------------------------------10---|
|------------10---12---10s=12s==10----10---12--------|
|-12----12-------------------------------------------|
|----------------------------------------------------|
|----------------------------------------------------|
|----------------------------------------------------|
|
|        |----3----|    |---3----|     |----3----|
|  Q     E    E    E    E  +E   +E     E    E    E
|-----------------------------------------------10---|
|------------10---12---10-(10)-(10)---10---12--------|
|-12----12-------------------------------------------|
|----------------------------------------------------|
|----------------------------------------------------|
|----------------------------------------------------|


  C                               G
   |--3--|  |--3--|  |--3--|
   E  E  E  E  E  E  E  E  E  E S  S
|--0--0--0--0--0--0--0--0--0--0----x--|
|--1--1--1--1--1--1--1--1--1--1----x--|
|--0--0--0--0--0--0--0--0--0--0----0--|
|--2--2--2--2--2--2--2--2--2--2----x--|
|--3--3--3--3--3--3--3--3--3--3----x--|
|----------------------------------3--|
|
|  |--3--|  |--3--|  |--3--|
|  E  E  E  E  E  E  E  E  E  E S  S
|-12-10-10-15-10----------------------|
|----------------12-10----------------|
|----------------------12-11-12-------|
|---------------------------------12--|
|-------------------------------------|
|-------------------------------------|
|
|  |--3--|  |--3--|  |--3--|
|  E  E  E  E  E  E  E  E  E  E S  S
|-12-10-10-15-10----------------------|
|----------------12-10----------------|
|----------------------12-11-12-------|
|---------------------------------12--|
|-------------------------------------|
|-------------------------------------|


  G                    D
  Gtr III
   E. S  E      E       E.          S  E      E
   |  |  |      |       |           |  |      |
   /  /  /      /       /           /  /      /

   E. S  S S    S    S  E.          S  S S    S    S
|--3--3--3-3----3----3--2-----------2--2-2----2----2-|
|--3--3--3-3----3----3--3-----------3--3-3----3----3-|
|--0--0--0-0----0----0--2-----------2--2-2----2----2-|
|--0--0--0-0----0----0--0-----------0--0-0----0----0-|
|--2--2--2-2----2------------------------------------|
|--3--3--3-3----3------------------------------------|
|
|        |----3----|    |---3----|     |----3----|
|  Q     E    E    E    E   E    E     E    E    E
|-----------------------------------------------10---|
|------------10---12---10s=12s==10----10---12--------|
|-12----12-------------------------------------------|
|----------------------------------------------------|
|----------------------------------------------------|
|----------------------------------------------------|
|
|        |----3----|    |---3----|     |----3----|
|  Q     E    E    E    E  +E   +E     E    E    E
|-----------------------------------------------10---|
|------------10---12---10-(10)-(10)---10---12--------|
|-12----12-------------------------------------------|
|----------------------------------------------------|
|----------------------------------------------------|
|----------------------------------------------------|


  C
   E.       S  E    E     E.       S  E    E
   |        |  |    |     |        |  |    |
   /        /  /    /     /        /  /    /

   |--3---|    |---3---|  |--3---|    |---3---|
   E   E  E    E  E    E  E   E  E    E  E    E
|--0---0--0----0--0----0--0---0--0----0--0----0-|
|--1---1--1----1--1----1--1---1--1----1--1----1-|
|--0---0--0----0--0----0--0---0--0----0--0----0-|
|--2---2--2----2--2----2--2---2--2----2--2------|
|--3---3--3----3--3----3--3---3--3----3--3------|
|-----------------------------------------------|
|
|  |--3---|    |---3---|  |--3---|    |---3---|
|  E   E  E    E  E    E  E   E  E    E  E    E
|-12--10-10---15-10---10-12--10------10---------|
|-------------------------------12------12---10-|
|-----------------------------------------------|
|-----------------------------------------------|
|-----------------------------------------------|
|-----------------------------------------------|
|
|  |--3---|    |---3---|  |--3---|    |---3---|
|  E   E  E    E  E    E  E   E  E    E  E    E
|-12--10-10---15-10---10-12--10------10---------|
|-------------------------------12------12---10-|
|-----------------------------------------------|
|-----------------------------------------------|
|-----------------------------------------------|
|-----------------------------------------------|


  G                    D
   E. S  E      E       E.          S  E      E
   |  |  |      |       |           |  |      |
   /  /  /      /       /           /  /      /

   E. S  S S    S    S  E.          S  S S    S    S
|--3--3--3-3----3----3--2-----------2--2-2----2----2-|
|--3--3--3-3----3----3--3-----------3--3-3----3----3-|
|--0--0--0-0----0----0--2-----------2--2-2----2----2-|
|--0--0--0-0----0----0--0-----------0--0-0----0----0-|
|--2--2--2-2----2------------------------------------|
|--3--3--3-3----3------------------------------------|
|
|        |----3----|    |---3----|     |----3----|
|  Q     E    E    E    E   E    E     E    E    E
|-----------------------------------------------10---|
|------------10---12---10s=12s==10----10---12--------|
|-12----12-------------------------------------------|
|----------------------------------------------------|
|----------------------------------------------------|
|----------------------------------------------------|
|
|        |----3----|    |---3----|     |----3----|
|  Q     E    E    E    E  +E   +E     E    E    E
|-----------------------------------------------10---|
|------------10---12---10-(10)-(10)---10---12--------|
|-12----12-------------------------------------------|
|----------------------------------------------------|
|----------------------------------------------------|
|----------------------------------------------------|


  C
   E.       S  E    E     E.       E    E.
   |        |  |    |     |        |
   /        /  /    /     /        /

   |--3---|    |---3---|  |--3---|
   E   E  E    E  E    E  E   E  E    E    E
|--0---0--0----0--0----0--0---0--0----0-------||
|--1---1--1----1--1----1--1---1--1----1-------||
|--0---0--0----0--0----0--0---0--0----0-------||
|--2---2--2----2--2----2--2---2--2----2-------||
|--3---3--3----3--3----3--3---3--3----3-------||
|---------------------------------------------||
|
|  |--3---|    |---3---|  |--3---|
|  E   E  E    E  E    E  E   E  E    E    E
|-12--10-10---15-10---------------------------||
|---------------------12-10-------------------||
|----------------------------12-11---12-------||
|---------------------------------------------||
|---------------------------------------------||
|---------------------------------------------||
|
|  |--3---|    |---3---|  |--3---|
|  E   E  E    E  E    E  E   E  E    E    E
|-12--10-10---15-10---------------------------||
|---------------------12-10-------------------||
|----------------------------12-11---12-------||
|---------------------------------------------||
|---------------------------------------------||
|---------------------------------------------||


 Verse 1
  G              C                G                 D
   E.  S  E    E  E.  S  E    E    E.     S  E    E  E.  S  E    E
|--3---3--3----3--0---0--0----0-|--3------3--3----3--2---2--2----2-|
|--3---3--3----3--1---1--1----1-|--3------3--3----3--3---3--3----3-|
|--0---0--0----0--0---0--0----0-|--0------0--0----0--2---2--2----2-|
|--0---0--0----0--2---2--2------|--0------0--0----0--0---0--0----0-|
|--2---2--2-------3---3--3------|--2------2--2---------------------|
|--3---3--3---------------------|--3------3--3---------------------|
|
| Gtr V
|  E.  S  S  S E  E.  S  S  S E    E   S  S  S  S E  E.  S  S  S E
|-15--15-15-15---12--12-12-12---|-15--15-15-15-15---14--14-14-14---|
|--x---x--x--x---13--13-13-13---|--x---x--x--x--x----x---x--x--x---|
|-16--16-16-16----x---x--x--x---|-16--16-16-16-16---14--14-14-14---|
|--x---x--x--x---14--14-14-14---|--x---x--x--x--x---12--12-12-12---|
|-17--17-17-17---15--15-15-15---|-17--17-17-17-17------------------|
|-15--15-15-15------------------|-15--15-15-15-15------------------|


  G              C                D                 G
   E.  S  E    E  E.  S  E    E    E.  S  E    E     E.  S  E    E
|--3---3--3----3--0---0--0----0-|--2---2--2----2-----3---3--3----3-|
|--3---3--3----3--1---1--1----1-|--3---3--3----3-----3---3--3----3-|
|--0---0--0----0--0---0--0----0-|--2---2--2----2-----0---0--0----0-|
|--0---0--0----0--2---2--2------|--0---0--0----0-----0---0--0----0-|
|--2---2--2-------3---3--3------|--------------------2---2--2------|
|--3---3--3---------------------|--------------------3---3--3------|
|
|  E.  S  S  S E  E.  S  S  S E    E.  S  S  E    S  E.  S  S  S E
|-15--15-15-15---12--12-12-12---|-14--14-14-14---14-15--15-15-15---|
|--x---x--x--x---13--13-13-13---|--x---x--x--x----x--x---x--x--x---|
|-16--16-16-16----x---x--x--x---|-14--14-14-14---14-16--16-16-16---|
|--x---x--x--x---14--14-14-14---|-12--12-12-12---12--x---x--x--x---|
|-17--17-17-17---15--15-15-15---|-------------------17--17-17-17---|
|-15--15-15-15------------------|-------------------15--15-15-15---|


  G              C                G                 D
   E.  S  E    E  E.  S  E    E    E.  S  E    E     E.  S  E    E
|--3---3--3----3--0---0--0----0-|--3---3--3----3-----2---2--2----2-|
|--3---3--3----3--1---1--1----1-|--3---3--3----3-----3---3--3----3-|
|--0---0--0----0--0---0--0----0-|--0---0--0----0-----2---2--2----2-|
|--0---0--0----0--2---2--2------|--0---0--0----0-----0---0--0----0-|
|--2---2--2-------3---3--3------|--2---2--2------------------------|
|--3---3--3---------------------|--3---3--3------------------------|
|
|  E.  S  S  S E  E.  S  S  S E    E.  S  S  E    S  E.  S  S  S E
|-15--15-15-15---12--12-12-12---|-15--15-15-15---15-14--14-14-14---|
|--x---x--x--x---13--13-13-13---|--x---x--x--x----x--x---x--x--x---|
|-16--16-16-16----x---x--x--x---|-16--16-16-16---16-14--14-14-14---|
|--x---x--x--x---14--14-14-14---|--x---x--x--x----x-12--12-12-12---|
|-17--17-17-17---15--15-15-15---|-17--17-17-17---17----------------|
|-15--15-15-15------------------|-15--15-15-15---15----------------|


  G              C                G
   E.  S  E    E  E.  S  E    E    E H.      S  S
|--3---3--3----3--0---0--0----0-|--3------------x-||
|--3---3--3----3--1---1--1----1-|--3------------x-||
|--0---0--0----0--0---0--0----0-|--0------------x-||
|--0---0--0----0--2---2--2------|--0------------x-||
|--2---2--2-------3---3--3------|--2------------x-||
|--3---3--3---------------------|--3------------3-||
|
|                                              Gtr I
|  E.  S  S  S E  E.  S  S  S E    E H.      S  S
|-15--15-15-15---12--12-12-12---|-15--------------||
|--x---x--x--x---13--13-13-13---|--x--------------||
|-16--16-16-16----x---x--x--x---|-16--------------||
|--x---x--x--x---14--14-14-14---|--x-----------12-||
|-17--17-17-17---15--15-15-15---|-17--------------||
|-15--15-15-15------------------|-15--------------||


 Chorus 1
  G                    D
  Gtr III
   E. S  E      E       E.          S  E      E
   |  |  |      |       |           |  |      |
   /  /  /      /       /           /  /      /

   E. S  S S    S    S  E.          S  S S    S    S
|--3--3--3-3----3----3--2-----------2--2-2----2----2-|
|--3--3--3-3----3----3--3-----------3--3-3----3----3-|
|--0--0--0-0----0----0--2-----------2--2-2----2----2-|
|--0--0--0-0----0----0--0-----------0--0-0----0----0-|
|--2--2--2-2----2------------------------------------|
|--3--3--3-3----3------------------------------------|
|
|        |----3----|    |---3----|     |----3----|
|  Q     E    E    E    E   E    E     E    E    E
|-----------------------------------------------10---|
|------------10---12---10s=12s==10----10---12--------|
|-12----12-------------------------------------------|
|----------------------------------------------------|
|----------------------------------------------------|
|----------------------------------------------------|
|
| Gtrs IV, V
|        |----3----|    |---3----|     |----3----|
|  Q     E    E    E    E  +E   +E     E    E    E
|-----------------------------------------------10---|
|------------10---12---10-(10)-(10)---10---12--------|
|-12----12-------------------------------------------|
|----------------------------------------------------|
|----------------------------------------------------|
|----------------------------------------------------|


  C
   E.       S  E    E     E.       S  E    E
   |        |  |    |     |        |  |    |
   /        /  /    /     /        /  /    /

   |--3---|    |---3---|  |--3---|    |---3---|
   E   E  E    E  E    E  E   E  E    E  E    E
|--0---0--0----0--0----0--0---0--0----0--0----0-|
|--1---1--1----1--1----1--1---1--1----1--1----1-|
|--0---0--0----0--0----0--0---0--0----0--0----0-|
|--2---2--2----2--2----2--2---2--2----2--2------|
|--3---3--3----3--3----3--3---3--3----3--3------|
|-----------------------------------------------|
|
|  |--3---|    |---3---|  |--3---|    |---3---|
|  E   E  E    E  E    E  E   E  E    E  E    E
|-12--10-10---15-10---10-12--10------10---------|
|-------------------------------12------12---10-|
|-----------------------------------------------|
|-----------------------------------------------|
|-----------------------------------------------|
|-----------------------------------------------|
|
|  |--3---|    |---3---|  |--3---|    |---3---|
|  E   E  E    E  E    E  E   E  E    E  E    E
|-12--10-10---15-10---10-12--10------10---------|
|-------------------------------12------12---10-|
|-----------------------------------------------|
|-----------------------------------------------|
|-----------------------------------------------|
|-----------------------------------------------|


  G                    D
   E. S  E      E       E.          S  E      E
   |  |  |      |       |           |  |      |
   /  /  /      /       /           /  /      /

   E. S  S S    S    S  E.          S  S S    S    S
|--3--3--3-3----3----3--2-----------2--2-2----2----2-|
|--3--3--3-3----3----3--3-----------3--3-3----3----3-|
|--0--0--0-0----0----0--2-----------2--2-2----2----2-|
|--0--0--0-0----0----0--0-----------0--0-0----0----0-|
|--2--2--2-2----2------------------------------------|
|--3--3--3-3----3------------------------------------|
|
|        |----3----|    |---3----|     |----3----|
|  Q     E    E    E    E   E    E     E    E    E
|-----------------------------------------------10---|
|------------10---12---10s=12s==10----10---12--------|
|-12----12-------------------------------------------|
|----------------------------------------------------|
|----------------------------------------------------|
|----------------------------------------------------|
|
|        |----3----|    |---3----|     |----3----|
|  Q     E    E    E    E  +E   +E     E    E    E
|-----------------------------------------------10---|
|------------10---12---10-(10)-(10)---10---12--------|
|-12----12-------------------------------------------|
|----------------------------------------------------|
|----------------------------------------------------|
|----------------------------------------------------|


  C
   E.       S  E    E     E.       S  E   E
   |        |  |    |     |        |  |   |
   /        /  /    /     /        /  /   /

   |--3---|    |---3---|  |--3---|    |--3--|
   E   E  E    E  E    E  E   E  E    E E   E
|--0---0--0----0--0----0--0---0--0----0-0-----||
|--1---1--1----1--1----1--1---1--1----1-1-----||
|--0---0--0----0--0----0--0---0--0----0-0-----||
|--2---2--2----2--2----2--2---2--2----2-2-----||
|--3---3--3----3--3----3--3---3--3----3-3-----||
|---------------------------------------------||
|
|  |--3---|    |---3---|  |--3---|
|  E   E  E    E  E    E  E   E  E    E   E
|-12--10-10---15-10---------------------------||
|---------------------12-10-------------------||
|----------------------------12-11---12-------||
|---------------------------------------------||
|---------------------------------------------||
|---------------------------------------------||
|
|  |--3---|    |---3---|  |--3---|
|  E   E  E    E  E    E  E   E  E    E   E
|-12--10-10---15-10---------------------------||
|---------------------12-10-------------------||
|----------------------------12-11---12-------||
|---------------------------------------------||
|---------------------------------------------||
|---------------------------------------------||


 Verse 2
  G        C          G        D
  Gtr III
  E. S E E E. S E E   E. S E E E. S E E
|-3--3-3-3-0--0-0-0-|-3--3-3-3-2--2-2-2-|
|-3--3-3-3-1--1-1-1-|-3--3-3-3-3--3-3-3-|
|-0--0-0-0-0--0-0-0-|-0--0-0-0-2--2-2-2-|
|-0--0-0-0-2--2-2-2-|-0--0-0-0-0--0-0-0-|
|-2--2-2-2-3--3-3-3-|-2--2-2-2----------|
|-3--3-3-3----------|-3--3-3-3----------|


  G        C          D        G
  E. S E E E. S E E   E. S E E E. S E E
|-3--3-3-3-0--0-0-0-|-2--2-2-2-3--3-3-3-|
|-3--3-3-3-1--1-1-1-|-3--3-3-3-3--3-3-3-|
|-0--0-0-0-0--0-0-0-|-2--2-2-2-0--0-0-0-|
|-0--0-0-0-2--2-2-2-|-0--0-0-0-0--0-0-0-|
|-2--2-2-2-3--3-3-3-|----------2--2-2-2-|
|-3--3-3-3----------|----------3--3-3-3-|


  G        C          G        D
  E. S E E E. S E E   E. S E E E. S E E
|-3--3-3-3-0--0-0-0-|-3--3-3-3-2--2-2-2-|
|-3--3-3-3-1--1-1-1-|-3--3-3-3-3--3-3-3-|
|-0--0-0-0-0--0-0-0-|-0--0-0-0-2--2-2-2-|
|-0--0-0-0-2--2-2-2-|-0--0-0-0-0--0-0-0-|
|-2--2-2-2-3--3-3-3-|-2--2-2-2----------|
|-3--3-3-3----------|-3--3-3-3----------|


  G        C          G
                                    Gtr II
  E. S E E E. S E E   E   H.      S  S
|-3--3-3-3-0--0-0-0-|-3--------------x-||
|-3--3-3-3-1--1-1-1-|-3--------------x-||
|-0--0-0-0-0--0-0-0-|-0--------------x-||
|-0--0-0-0-2--2-2-2-|-0--------------x-||
|-2--2-2-2-3--3-3-3-|-2--------------x-||
|-3--3-3-3----------|-3--------------3-||
|
|                                   Gtr I
| W                   H..         S  S
|-------------------|------------------||
|-------------------|------------------||
|-------------------|------------------||
|-------------------|---------------12-||
|-------------------|------------------||
|-------------------|------------------||


 Chorus 2
  G                    D
  Gtr III
   E. S  E      E       E.          S  E      E
   |  |  |      |       |           |  |      |
   /  /  /      /       /           /  /      /

   E. S  S S    S    S  E.          S  S S    S    S
|--3--3--3-3----3----3--2-----------2--2-2----2----2-|
|--3--3--3-3----3----3--3-----------3--3-3----3----3-|
|--0--0--0-0----0----0--2-----------2--2-2----2----2-|
|--0--0--0-0----0----0--0-----------0--0-0----0----0-|
|--2--2--2-2----2------------------------------------|
|--3--3--3-3----3------------------------------------|
|
|        |----3----|    |---3----|     |----3----|
|  Q     E    E    E    E   E    E     E    E    E
|-----------------------------------------------10---|
|------------10---12---10s=12s==10----10---12--------|
|-12----12-------------------------------------------|
|----------------------------------------------------|
|----------------------------------------------------|
|----------------------------------------------------|
|
| Gtrs IV, V
|        |----3----|    |---3----|     |----3----|
|  Q     E    E    E    E  +E   +E     E    E    E
|-----------------------------------------------10---|
|------------10---12---10-(10)-(10)---10---12--------|
|-12----12-------------------------------------------|
|----------------------------------------------------|
|----------------------------------------------------|
|----------------------------------------------------|


  C
   E.       S  E    E     E.       S  E    E
   |        |  |    |     |        |  |    |
   /        /  /    /     /        /  /    /

   |--3---|    |---3---|  |--3---|    |---3---|
   E   E  E    E  E    E  E   E  E    E  E    E
|--0---0--0----0--0----0--0---0--0----0--0----0-|
|--1---1--1----1--1----1--1---1--1----1--1----1-|
|--0---0--0----0--0----0--0---0--0----0--0----0-|
|--2---2--2----2--2----2--2---2--2----2--2------|
|--3---3--3----3--3----3--3---3--3----3--3------|
|-----------------------------------------------|
|
|  |--3---|    |---3---|  |--3---|    |---3---|
|  E   E  E    E  E    E  E   E  E    E  E    E
|-12--10-10---15-10---10-12--10------10---------|
|-------------------------------12------12---10-|
|-----------------------------------------------|
|-----------------------------------------------|
|-----------------------------------------------|
|-----------------------------------------------|
|
|  |--3---|    |---3---|  |--3---|    |---3---|
|  E   E  E    E  E    E  E   E  E    E  E    E
|-12--10-10---15-10---10-12--10------10---------|
|-------------------------------12------12---10-|
|-----------------------------------------------|
|-----------------------------------------------|
|-----------------------------------------------|
|-----------------------------------------------|


  G                    D
   E. S  E      E       E.          S  E      E
   |  |  |      |       |           |  |      |
   /  /  /      /       /           /  /      /

   E. S  S S    S    S  E.          S  S S    S    S
|--3--3--3-3----3----3--2-----------2--2-2----2----2-|
|--3--3--3-3----3----3--3-----------3--3-3----3----3-|
|--0--0--0-0----0----0--2-----------2--2-2----2----2-|
|--0--0--0-0----0----0--0-----------0--0-0----0----0-|
|--2--2--2-2----2------------------------------------|
|--3--3--3-3----3------------------------------------|
|
|        |----3----|    |---3----|     |----3----|
|  Q     E    E    E    E   E    E     E    E    E
|-----------------------------------------------10---|
|------------10---12---10s=12s==10----10---12--------|
|-12----12-------------------------------------------|
|----------------------------------------------------|
|----------------------------------------------------|
|----------------------------------------------------|
|
|        |----3----|    |---3----|     |----3----|
|  Q     E    E    E    E  +E   +E     E    E    E
|-----------------------------------------------10---|
|------------10---12---10-(10)-(10)---10---12--------|
|-12----12-------------------------------------------|
|----------------------------------------------------|
|----------------------------------------------------|
|----------------------------------------------------|


  C
   E.       S  E    E     E.       S  E    E
   |        |  |    |     |        |  |    |
   /        /  /    /     /        /  /    /

   |--3---|    |---3---|  |--3---|    |--3---|
   E   E  E    E  E    E  E   E  E    E E    E
|--0---0--0----0--0----0--0---0--0----0-0----0-|
|--1---1--1----1--1----1--1---1--1----1-1----1-|
|--0---0--0----0--0----0--0---0--0----0-0----0-|
|--2---2--2----2--2----2--2---2--2----2-2------|
|--3---3--3----3--3----3--3---3--3----3-3------|
|----------------------------------------------|
|
|  |--3---|    |---3---|  |--3---|
|  E   E  E    E  E    E  E   E  E    E    E
|-12--10-10---15-10----------------------------|
|---------------------12-10--------------------|
|----------------------------12-11---12--------|
|-----------------------------------------12---|
|----------------------------------------------|
|----------------------------------------------|
|
|  |--3---|    |---3---|  |--3---|
|  E   E  E    E  E    E  E   E  E    E    E
|-12--10-10---15-10----------------------------|
|---------------------12-10--------------------|
|----------------------------12-11---12--------|
|-----------------------------------------12---|
|----------------------------------------------|
|----------------------------------------------|


  G                    D
   E. S  E      E       E.          S  E      E
   |  |  |      |       |           |  |      |
   /  /  /      /       /           /  /      /

   E. S  S S    S    S  E.          S  S S    S    S
|--3--3--3-3----3----3--2-----------2--2-2----2----2-|
|--3--3--3-3----3----3--3-----------3--3-3----3----3-|
|--0--0--0-0----0----0--2-----------2--2-2----2----2-|
|--0--0--0-0----0----0--0-----------0--0-0----0----0-|
|--2--2--2-2----2------------------------------------|
|--3--3--3-3----3------------------------------------|
|
|        |----3----|    |---3----|     |----3----|
|  Q     E    E    E    E   E    E     E    E    E
|-----------------------------------------------10---|
|------------10---12---10s=12s==10----10---12--------|
|-12----12-------------------------------------------|
|----------------------------------------------------|
|----------------------------------------------------|
|----------------------------------------------------|
|
|        |----3----|    |---3----|     |----3----|
|  Q     E    E    E    E  +E   +E     E    E    E
|-----------------------------------------------10---|
|------------10---12---10-(10)-(10)---10---12--------|
|-12----12-------------------------------------------|
|----------------------------------------------------|
|----------------------------------------------------|
|----------------------------------------------------|


  C
   E.       S  E    E     E.       S  E    E
   |        |  |    |     |        |  |    |
   /        /  /    /     /        /  /    /

   |--3---|    |---3---|  |--3---|    |---3---|
   E   E  E    E  E    E  E   E  E    E  E    E
|--0---0--0----0--0----0--0---0--0----0--0----0-|
|--1---1--1----1--1----1--1---1--1----1--1----1-|
|--0---0--0----0--0----0--0---0--0----0--0----0-|
|--2---2--2----2--2----2--2---2--2----2--2------|
|--3---3--3----3--3----3--3---3--3----3--3------|
|-----------------------------------------------|
|
|  |--3---|    |---3---|  |--3---|    |---3---|
|  E   E  E    E  E    E  E   E  E    E  E    E
|-12--10-10---15-10---10-12--10------10---------|
|-------------------------------12------12---10-|
|-----------------------------------------------|
|-----------------------------------------------|
|-----------------------------------------------|
|-----------------------------------------------|
|
|  |--3---|    |---3---|  |--3---|    |---3---|
|  E   E  E    E  E    E  E   E  E    E  E    E
|-12--10-10---15-10---10-12--10------10---------|
|-------------------------------12------12---10-|
|-----------------------------------------------|
|-----------------------------------------------|
|-----------------------------------------------|
|-----------------------------------------------|


  G                    D
   E. S  E      E       E.          S  E      E
   |  |  |      |       |           |  |      |
   /  /  /      /       /           /  /      /

   E. S  S S    S    S  E.          S  S S    S    S
|--3--3--3-3----3----3--2-----------2--2-2----2----2-|
|--3--3--3-3----3----3--3-----------3--3-3----3----3-|
|--0--0--0-0----0----0--2-----------2--2-2----2----2-|
|--0--0--0-0----0----0--0-----------0--0-0----0----0-|
|--2--2--2-2----2------------------------------------|
|--3--3--3-3----3------------------------------------|
|
|        |----3----|    |---3----|     |----3----|
|  Q     E    E    E    E   E    E     E    E    E
|-----------------------------------------------10---|
|------------10---12---10s=12s==10----10---12--------|
|-12----12-------------------------------------------|
|----------------------------------------------------|
|----------------------------------------------------|
|----------------------------------------------------|
|
|        |----3----|    |---3----|     |----3----|
|  Q     E    E    E    E  +E   +E     E    E    E
|-----------------------------------------------10---|
|------------10---12---10-(10)-(10)---10---12--------|
|-12----12-------------------------------------------|
|----------------------------------------------------|
|----------------------------------------------------|
|----------------------------------------------------|


  C
   E.       S  E    E     E.       S  E   E
   |        |  |    |     |        |  |   |
   /        /  /    /     /        /  /   /

   |--3---|    |---3---|  |--3---|    |--3--|
   E   E  E    E  E    E  E   E  E    E E   E
|--0---0--0----0--0----0--0---0--0----0-0---0-||
|--1---1--1----1--1----1--1---1--1----1-1---1-||
|--0---0--0----0--0----0--0---0--0----0-0---0-||
|--2---2--2----2--2----2--2---2--2----2-2-----||
|--3---3--3----3--3----3--3---3--3----3-3-----||
|---------------------------------------------||
|
|  |--3---|    |---3---|  |--3---|
|  E   E  E    E  E    E  E   E  E    E   E
|-12--10-10---15-10---------------------------||
|---------------------12-10-------------------||
|----------------------------12-11---12-------||
|---------------------------------------------||
|---------------------------------------------||
|---------------------------------------------||
|
|  |--3---|    |---3---|  |--3---|
|  E   E  E    E  E    E  E   E  E    E   E
|-12--10-10---15-10---------------------------||
|---------------------12-10-------------------||
|----------------------------12-11---12-------||
|---------------------------------------------||
|---------------------------------------------||
|---------------------------------------------||


   Verse 3
    D
     E.  S  S  S  E    E  E     E     E
     |   |  |  |  |    |  |     |     |
     /   /  /  /  /    /  /     /     /

     E.  S  S  S  S S  E.    S  S  S  S S
||---2---2--2--2--2-2--2-----2--2--2--2-2-|
||o--3---3--0--0--0-0--3-----3--0--0--0-0-|
||---2---2--2--2--2-2--2-----2--2--2--2-2-|
||---0---0--0--0--0-0--0-----0--0--0--0-0-|
||o---------------------------------------|
||----------------------------------------|
|
|   Gtr V
|    E.  S  S  S  E    E.    S  S  S  E
||--14--14-14-14-14---14----14-14-14-14---|
||o--x---x--x--x--x----x-----x--x--x--x---|
||--14--14-14-14-14---14----14-14-14-14---|
||--12--12-12-12-12---12----12-12-12-12---|
||o---------------------------------------|
||----------------------------------------|
|
|   Gtrs I, IV
|    W
||----------------------------------------|
||o---------------------------------------|
||----------------------------------------|
||--16------------------------------------|
||o---------------------------------------|
||----------------------------------------|


  G
   E.  S  S  S  E    E  E     E     E
   |   |  |  |  |    |  |     |     |
   /   /  /  /  /    /  /     /     /

   E.  S  S  S  S S  E.    S  S  S  S S
|--3---3--3--3--3-3--3-----3--3--3--3-3-|
|--3---3--3--3--3-3--3-----3--3--3--3-3-|
|--0---0--0--0--0-0--0-----0--0--0--0-0-|
|--0---0--0--0--0-0--0-----0--0--0--0-0-|
|--2---2-------------2-----2------------|
|--3---3-------------3-----3------------|
|
|  E.  S  S  S  E    E.    S  S  S  E
|-15--15-15-15-15---15----15-15-15-15---|
|--x---x--x--x--x----x-----x--x--x--x---|
|-16--16-16-16-16---16----16-16-16-16---|
|--x---x--x--x--x----x-----x--x--x--x---|
|-17--17-17-17-17---17----17-17-17-17---|
|-15--15-15-15-15---15----15-15-15-15---|
|
|  W
|---------------------------------------|
|---------------------------------------|
|---------------------------------------|
|-17------------------------------------|
|---------------------------------------|
|---------------------------------------|


  C                 D
   E.  S  E     E    E.  S  E     E
   |   |  |     |    |   |  |     |
   /   /  /     /    /   /  /     /

   E.  S  S  S  S S  E.  S  S  S  S S
|--0---0--0--0--0-0--2---2--2--2--2-2-|
|--1---1--1--1--1-1--3---3--3--3--3-3-|
|--0---0--0--0--0-0--2---2--2--2--2-2-|
|--2---2--2--2-------0---0--0--0--0-0-|
|--3---3--3--3------------------------|
|-------------------------------------|
|
|  E.  S  S  S  E    E.  S  S  S  E
|-12--12-12-12------14--14-14-14------|
|-13--13-13-13-------x---x--x--x------|
|--x---x--x--x------14--14-14-14-14---|
|-14--14-14-14-14---12--12-12-12-12---|
|-15--15-15-15-15---------------------|
|-------------------------------------|
|
|  H                 H
|-------------------------------------|
|-------------------------------------|
|-------------------------------------|
|-14----------------16----------------|
|-------------------------------------|
|-------------------------------------|


  G
   E.  S  S  S  E    E  E     E     E
   |   |  |  |  |    |  |     |     |
   /   /  /  /  /    /  /     /     /

   E.  S  S  S  S S  E.    S  S  S  S S
|--3---3--3--3--3-3--3-----3--3--3--3-3--||
|--3---3--3--3--3-3--3-----3--3--3--3-3-o||
|--0---0--0--0--0-0--0-----0--0--0--0-0--||
|--0---0--0--0--0-0--0-----0--0--0--0-0--||
|--2---2-------------2-----2------------o||
|--3---3-------------3-----3-------------||
|
|  E.  S  S  S  E    E.    S  S  S  E
|-15--15-15-15-15---15----15-15-15-15----||
|--x---x--x--x--x----x-----x--x--x--x---o||
|-16--16-16-16-16---16----16-16-16-16----||
|--x---x--x--x--x----x-----x--x--x--x----||
|-17--17-17-17-17---17----17-17-17-17---o||
|-15--15-15-15-15---15----15-15-15-15----||
|
|  W
|----------------------------------------||
|---------------------------------------o||
|----------------------------------------||
|-17-------------------------------------||
|---------------------------------------o||
|----------------------------------------||


    D
     E.        S  S  S     E       E     E        E        E
     |         |  |  |     |       |     |        |        |
     /         /  /  /     /       /     /        /        /

     E.        S  S  S     S    S  E.          S  S  S     S    S
||---2---------2--2--2-----2----2--2-----------2--2--2-----2----2-|
||o--3---------3--0--0-----0----0--3-----------3--0--0-----0----0-|
||---2---------2--2--2-----2----2--2-----------2--2--2-----2----2-|
||---0---------0--0--0-----0----0--0-----------0--0--0-----0----0-|
||o---------------------------------------------------------------|
||----------------------------------------------------------------|
|
|    E.        S  S  S     E       E.          S  S  S     E
||--14--------14-14-14----14------14----------14-14-14----14------|
||o--x---------x--x--x-----x-------x-----------x--x--x-----x------|
||--14--------14-14-14----14------14----------14-14-14----14------|
||--12--------12-12-12----12------12----------12-12-12----12------|
||o---------------------------------------------------------------|
||----------------------------------------------------------------|
|
|   Gtr IV
|    |--3---|     |-----3-----|    |---3----|     |-----3-----|
|    E   E  E     E     E     E    E   E    E     E     E     E
||--14--15-17----14----15----17---14--15---17----14----15----17---|
||o---------------------------------------------------------------|
||----------------------------------------------------------------|
||--16------------------------------------------------------------|
||o---------------------------------------------------------------|
||----------------------------------------------------------------|
     W
     |


  G                                                                 C           D
   E.        S  S  S     E       E     E        E        E           E.        S  

   E.        S  S  S     S    S  E.          S  S  S     S    S  3x  E.        S  
|--3---------3--3--3-----3----3--3-----------3--3--3-----3----3--||--0---------0--
|--3---------3--3--3-----3----3--3-----------3--3--3-----3----3-o||--1---------1--
|--0---------0--0--0-----0----0--0-----------0--0--0-----0----0--||--0---------0--
|--0---------0--0--0-----0----0--0-----------0--0--0-----0----0--||--2---------2--
|--2---------2-------------------2-----------2------------------o||--3---------3--
|--3---------3-------------------3-----------3-------------------||---------------

0--0-----0----0--2---------2--2---2--2-2---||
1--1-----1----1--3---------3--3---3--3-3---||
0--0-----0----0--2---------2--2---2--2-2---||
2--2-------------0---------0--0---0--0-0---||
3--3---------------------------------------||
-------------------------------------------||

|
|                                                                                    Gtr I
|  E.        S  S  S     E       E.          S  S  S     E       3x  E.        S  
|-15--------15-15-15----15------15----------15-15-15----15-------||-12--------12-
|--x---------x--x--x-----x-------x-----------x--x--x-----x------o||-13--------13-
|-16--------16-16-16----16------16----------16-16-16----16-------||--x---------x--
|--x---------x--x--x-----x-------x-----------x--x--x-----x-------||-14--------14-
|-17--------17-17-17----17------17----------17-17-17----17------o||-15--------15-
|-15--------15-15-15----15------15----------15-15-15----15-------||---------------

12-12------------14--------14-14--14--------||
13-13-------------x---------x--x---x--------||
x--x------------14--------14-14--14---------||
14-14----14------12--------12-12--12-12-----||
15-15----15---------------------------------||
--------------------------------------------||

|
|  |--3---|     |-----3-----|    |---3----|     |-----3-----|        |--3---|
|  E   E  E     E     E     E    E   E    E     E     E     E    3x  E   E  E     
|-15--17-19----15----17----19---15--17---19----15----17----19----||-14--15-17----
|---------------------------------------------------------------o||-13-----------
|----------------------------------------------------------------||---------------
|-17-------------------------------------------------------------||---------------
|---------------------------------------------------------------o||---------------
|----------------------------------------------------------------||---------------

14----15----17---15--17-19----19\-----------||
13---------------15-------------------------||
--------------------------------------------||
--------------------------------------------||
--------------------------------------------||
--------------------------------------------||

   W     Q            Q                Q            Q
|-------------1:1-------------|


 Chorus 3
  G                    D
  Gtr III
   E. S  E      E       E.          S  E      E
   |  |  |      |       |           |  |      |
   /  /  /      /       /           /  /      /

   E. S  S S    S    S  E.          S  S S    S    S
|--3--3--3-3----3----3--2-----------2--2-2----2----2-|
|--3--3--3-3----3----3--3-----------3--3-3----3----3-|
|--0--0--0-0----0----0--2-----------2--2-2----2----2-|
|--0--0--0-0----0----0--0-----------0--0-0----0----0-|
|--2--2--2-2----2------------------------------------|
|--3--3--3-3----3------------------------------------|
|
|        |----3----|    |---3----|     |----3----|
|  Q     E    E    E    E   E    E     E    E    E
|-----------------------------------------------10---|
|------------10---12---10s=12s==10----10---12--------|
|-12----12-------------------------------------------|
|----------------------------------------------------|
|----------------------------------------------------|
|----------------------------------------------------|
|
| Gtrs IV, V
|        |----3----|    |---3----|     |----3----|
|  Q     E    E    E    E  +E   +E     E    E    E
|-----------------------------------------------10---|
|------------10---12---10-(10)-(10)---10---12--------|
|-12----12-------------------------------------------|
|----------------------------------------------------|
|----------------------------------------------------|
|----------------------------------------------------|


  C
   E.       S  E    E     E.       S  E    E
   |        |  |    |     |        |  |    |
   /        /  /    /     /        /  /    /

   |--3---|    |---3---|  |--3---|    |---3---|
   E   E  E    E  E    E  E   E  E    E  E    E
|--0---0--0----0--0----0--0---0--0----0--0----0-|
|--1---1--1----1--1----1--1---1--1----1--1----1-|
|--0---0--0----0--0----0--0---0--0----0--0----0-|
|--2---2--2----2--2----2--2---2--2----2--2------|
|--3---3--3----3--3----3--3---3--3----3--3------|
|-----------------------------------------------|
|
|  |--3---|    |---3---|  |--3---|    |---3---|
|  E   E  E    E  E    E  E   E  E    E  E    E
|-12--10-10---15-10---10-12--10------10---------|
|-------------------------------12------12---10-|
|-----------------------------------------------|
|-----------------------------------------------|
|-----------------------------------------------|
|-----------------------------------------------|
|
|  |--3---|    |---3---|  |--3---|    |---3---|
|  E   E  E    E  E    E  E   E  E    E  E    E
|-12--10-10---15-10---10-12--10------10---------|
|-------------------------------12------12---10-|
|-----------------------------------------------|
|-----------------------------------------------|
|-----------------------------------------------|
|-----------------------------------------------|


  G                    D
   E. S  E      E       E.          S  E      E
   |  |  |      |       |           |  |      |
   /  /  /      /       /           /  /      /

   E. S  S S    S    S  E.          S  S S    S    S
|--3--3--3-3----3----3--2-----------2--2-2----2----2-|
|--3--3--3-3----3----3--3-----------3--3-3----3----3-|
|--0--0--0-0----0----0--2-----------2--2-2----2----2-|
|--0--0--0-0----0----0--0-----------0--0-0----0----0-|
|--2--2--2-2----2------------------------------------|
|--3--3--3-3----3------------------------------------|
|
|        |----3----|    |---3----|     |----3----|
|  Q     E    E    E    E   E    E     E    E    E
|-----------------------------------------------10---|
|------------10---12---10s=12s==10----10---12--------|
|-12----12-------------------------------------------|
|----------------------------------------------------|
|----------------------------------------------------|
|----------------------------------------------------|
|
|        |----3----|    |---3----|     |----3----|
|  Q     E    E    E    E  +E   +E     E    E    E
|-----------------------------------------------10---|
|------------10---12---10-(10)-(10)---10---12--------|
|-12----12-------------------------------------------|
|----------------------------------------------------|
|----------------------------------------------------|
|----------------------------------------------------|


  C
   E.       S  E    E     E.       S  E    E
   |        |  |    |     |        |  |    |
   /        /  /    /     /        /  /    /

   |--3---|    |---3---|  |--3---|    |--3---|
   E   E  E    E  E    E  E   E  E    E E    E
|--0---0--0----0--0----0--0---0--0----0-0----0-|
|--1---1--1----1--1----1--1---1--1----1-1----1-|
|--0---0--0----0--0----0--0---0--0----0-0----0-|
|--2---2--2----2--2----2--2---2--2----2-2------|
|--3---3--3----3--3----3--3---3--3----3-3------|
|----------------------------------------------|
|
|  |--3---|    |---3---|  |--3---|
|  E   E  E    E  E    E  E   E  E    E    E
|-12--10-10---15-10----------------------------|
|---------------------12-10--------------------|
|----------------------------12-11---12--------|
|-----------------------------------------12---|
|----------------------------------------------|
|----------------------------------------------|
|
|  |--3---|    |---3---|  |--3---|
|  E   E  E    E  E    E  E   E  E    E    E
|-12--10-10---15-10----------------------------|
|---------------------12-10--------------------|
|----------------------------12-11---12--------|
|-----------------------------------------12---|
|----------------------------------------------|
|----------------------------------------------|


  G                    D
   E. S  E      E       E.          S  E      E
   |  |  |      |       |           |  |      |
   /  /  /      /       /           /  /      /

   E. S  S S    S    S  E.          S  S S    S    S
|--3--3--3-3----3----3--2-----------2--2-2----2----2-|
|--3--3--3-3----3----3--3-----------3--3-3----3----3-|
|--0--0--0-0----0----0--2-----------2--2-2----2----2-|
|--0--0--0-0----0----0--0-----------0--0-0----0----0-|
|--2--2--2-2----2------------------------------------|
|--3--3--3-3----3------------------------------------|
|
|        |----3----|    |---3----|     |----3----|
|  Q     E    E    E    E   E    E     E    E    E
|-----------------------------------------------10---|
|------------10---12---10s=12s==10----10---12--------|
|-12----12-------------------------------------------|
|----------------------------------------------------|
|----------------------------------------------------|
|----------------------------------------------------|
|
|        |----3----|    |---3----|     |----3----|
|  Q     E    E    E    E  +E   +E     E    E    E
|-----------------------------------------------10---|
|------------10---12---10-(10)-(10)---10---12--------|
|-12----12-------------------------------------------|
|----------------------------------------------------|
|----------------------------------------------------|
|----------------------------------------------------|


  C
   E.       S  E    E     E.       S  E    E
   |        |  |    |     |        |  |    |
   /        /  /    /     /        /  /    /

   |--3---|    |---3---|  |--3---|    |---3---|
   E   E  E    E  E    E  E   E  E    E  E    E
|--0---0--0----0--0----0--0---0--0----0--0----0-|
|--1---1--1----1--1----1--1---1--1----1--1----1-|
|--0---0--0----0--0----0--0---0--0----0--0----0-|
|--2---2--2----2--2----2--2---2--2----2--2------|
|--3---3--3----3--3----3--3---3--3----3--3------|
|-----------------------------------------------|
|
|  |--3---|    |---3---|  |--3---|    |---3---|
|  E   E  E    E  E    E  E   E  E    E  E    E
|-12--10-10---15-10---10-12--10------10---------|
|-------------------------------12------12---10-|
|-----------------------------------------------|
|-----------------------------------------------|
|-----------------------------------------------|
|-----------------------------------------------|
|
|  |--3---|    |---3---|  |--3---|    |---3---|
|  E   E  E    E  E    E  E   E  E    E  E    E
|-12--10-10---15-10---10-12--10------10---------|
|-------------------------------12------12---10-|
|-----------------------------------------------|
|-----------------------------------------------|
|-----------------------------------------------|
|-----------------------------------------------|


  G                    D
   E. S  E      E       E.          S  E      E
   |  |  |      |       |           |  |      |
   /  /  /      /       /           /  /      /

   E. S  S S    S    S  E.          S  S S    S    S
|--3--3--3-3----3----3--2-----------2--2-2----2----2-|
|--3--3--3-3----3----3--3-----------3--3-3----3----3-|
|--0--0--0-0----0----0--2-----------2--2-2----2----2-|
|--0--0--0-0----0----0--0-----------0--0-0----0----0-|
|--2--2--2-2----2------------------------------------|
|--3--3--3-3----3------------------------------------|
|
|        |----3----|    |---3----|     |----3----|
|  Q     E    E    E    E   E    E     E    E    E
|-----------------------------------------------10---|
|------------10---12---10s=12s==10----10---12--------|
|-12----12-------------------------------------------|
|----------------------------------------------------|
|----------------------------------------------------|
|----------------------------------------------------|
|
|        |----3----|    |---3----|     |----3----|
|  Q     E    E    E    E  +E   +E     E    E    E
|-----------------------------------------------10---|
|------------10---12---10-(10)-(10)---10---12--------|
|-12----12-------------------------------------------|
|----------------------------------------------------|
|----------------------------------------------------|
|----------------------------------------------------|


  C
   E.       S  E    E     E.       S  E   E
   |        |  |    |     |        |  |   |
   /        /  /    /     /        /  /   /

   |--3---|    |---3---|  |--3---|    |--3--|
   E   E  E    E  E    E  E   E  E    E E   E
|--0---0--0----0--0----0--0---0--0----0-0---0-----||
|--1---1--1----1--1----1--1---1--1----1-1---1-----||
|--0---0--0----0--0----0--0---0--0----0-0---0-----||
|--2---2--2----2--2----2--2---2--2----2-2---------||
|--3---3--3----3--3----3--3---3--3----3-3---------||
|-------------------------------------------------||
|
|  |--3---|    |---3---|  |--3---|
|  E   E  E    E  E    E  E   E  E    E   S    S
|-12--10-10---15-10-------------------------------||
|---------------------12-10-----------------------||
|----------------------------12-11---12-------12--||
|-------------------------------------------------||
|-------------------------------------------------||
|-------------------------------------------------||
|
|  |--3---|    |---3---|  |--3---|
|  E   E  E    E  E    E  E   E  E    E   E
|-12--10-10---15-10-------------------------------||
|---------------------12-10-----------------------||
|----------------------------12-11---12-----------||
|-------------------------------------------------||
|-------------------------------------------------||
|-------------------------------------------------||


 Fiddle Solo
  G                         C
   E.      S  S S    S    S  E.      S  S S    S    S
|--3-------3--3-3----3----3--0-------0--0-0----0----0-|
|--3-------3--3-3----3----3--1-------1--1-1----1----1-|
|--0-------0--0-0----0----0--0-------0--0-0----0----0-|
|--0-------0--0-0----0----0--2-------2--2-2-----------|
|--2-------2--2-2------------3-------3--3-3-----------|
|--3-------3--3-3-------------------------------------|
|
|  |--3--|    |----3----|    |--3--|    |----3----|
|  E  E  E    E    E    E    E  E  E    E    E    E
|---------------------------12h15p12------------------|
|-12p10h12---15p==12h==15--------------15p==12p==10---|
|-----------------------------------------------------|
|-----------------------------------------------------|
|-----------------------------------------------------|
|-----------------------------------------------------|
|
|  |--3--|    |----3----|    |--3--|    |----3----|
|  E  E  E    E    E    E    E  E  E    E    E    E
|---------------------------12-15-12------------------|
|-12-10-12---15---12---15--------------15---12---10---|
|-----------------------------------------------------|
|-----------------------------------------------------|
|-----------------------------------------------------|
|-----------------------------------------------------|


  G                         D
   E.      S  S S    S    S  E.       S  S S    S    S
|--3-------3--3-3----3----3--2--------2--2-2----2----2-|
|--3-------3--3-3----3----3--3--------3--3-3----3----3-|
|--0-------0--0-0----0----0--2--------2--2-2----2----2-|
|--0-------0--0-0----0----0--0--------0--0-0----0----0-|
|--2-------2--2-2--------------------------------------|
|--3-------3--3-3--------------------------------------|
|
|  |--3--|    |----3----|    |--3---|    |----3----|
|  E  E  E    E    E    E    E   E  E    E    E    E
|------------------------------------------------------|
|-12p10h12---15p==12p==10---10-----10---10--------10---|
|-------------------------------12-----------12--------|
|------------------------------------------------------|
|------------------------------------------------------|
|------------------------------------------------------|
|
|  |--3--|    |----3----|    |--3---|    |----3----|
|  E  E  E    E    E    E    E   E  E    E    E    E
|------------------------------------------------------|
|-12-10-12---15---12---10---10-----10---10--------10---|
|-------------------------------12-----------12--------|
|------------------------------------------------------|
|------------------------------------------------------|
|------------------------------------------------------|


  G                         C
   E.      S  S S    S    S  E.      S  S S    S      S
|--3-------3--3-3----3----3--0-------0--0-0----0------0-|
|--3-------3--3-3----3----3--1-------1--1-1----1------1-|
|--0-------0--0-0----0----0--0-------0--0-0----0------0-|
|--0-------0--0-0----0----0--2-------2--2-2-------------|
|--2-------2--2-2------------3-------3--3-3-------------|
|--3-------3--3-3---------------------------------------|
|
|  |--3--|    |----3----|    |--3--|    |----3-----|
|  E  E  E    E    E    E    E  E  E    E    E     E
|---------------------------12h15p12--------------------|
|-12p10h12---15p==12h==15--------------15p==12p===10----|
|-------------------------------------------------------|
|-------------------------------------------------------|
|-------------------------------------------------------|
|-------------------------------------------------------|
|
|  |--3--|    |----3----|    |--3--|    |----3-----|
|  E  E  E    E    E    E    E  E  E    E    E    +E
|---------------------------12-15-12--------------------|
|-12-10-12---15---12---15--------------15---12---(12)---|
|-------------------------------------------------------|
|-------------------------------------------------------|
|-------------------------------------------------------|
|-------------------------------------------------------|


  D                           G
   E.      S  S S    S      S  E.      S  S S S  S
|--2-------2--2-2----2------2--3-------3--3-3-3--3-|
|--3-------3--3-3----3------3--3-------3--3-3-3--3-|
|--2-------2--2-2----2------2--0-------0--0-0-0--0-|
|--0-------0--0-0----0------0--0-------0--0-0-0--0-|
|------------------------------2-------2--2-2------|
|------------------------------3-------3--3-3------|
|
|  |--3--|    |----3-----|     |--3--|
|  E  E  E    E    E     E     E  E  E    E   S  S
|-15p14h15---17p==15h===17----19p15p14---15--------|
|--------------------------------------------------|
|-----------------------------------------------12-|
|--------------------------------------------------|
|--------------------------------------------------|
|--------------------------------------------------|
|
|  |--3--|    |----3-----|     |--3--|
|  E  E  E    E    E    +E     E  E  E    E   S  S
|-15-14-15---17---15---(15)---19-15-14---15--------|
|--------------------------------------------------|
|-----------------------------------------------12-|
|--------------------------------------------------|
|--------------------------------------------------|
|--------------------------------------------------|


  G                         C
   E.      S  S S    S    S  E.      S  S S    S    S
|--3-------3--3-3----3----3--0-------0--0-0----0----0-|
|--3-------3--3-3----3----3--1-------1--1-1----1----1-|
|--0-------0--0-0----0----0--0-------0--0-0----0----0-|
|--0-------0--0-0----0----0--2-------2--2-2-----------|
|--2-------2--2-2------------3-------3--3-3-----------|
|--3-------3--3-3-------------------------------------|
|
|  |--3--|    |----3----|    |--3--|    |----3----|
|  E  E  E    E    E    E    E  E  E    E    E    E
|---------------------------12h15p12------------------|
|-12p10h12---15p==12h==15--------------15p==12p==10---|
|-----------------------------------------------------|
|-----------------------------------------------------|
|-----------------------------------------------------|
|-----------------------------------------------------|
|
|  |--3--|    |----3----|    |--3--|    |----3----|
|  E  E  E    E    E    E    E  E  E    E    E    E
|---------------------------12-15-12------------------|
|-12-10-12---15---12---15--------------15---12---10---|
|-----------------------------------------------------|
|-----------------------------------------------------|
|-----------------------------------------------------|
|-----------------------------------------------------|


  G                         D
   E.      S  S S    S    S  E.       S  S S    S    S
|--3-------3--3-3----3----3--2--------2--2-2----2----2-|
|--3-------3--3-3----3----3--3--------3--3-3----3----3-|
|--0-------0--0-0----0----0--2--------2--2-2----2----2-|
|--0-------0--0-0----0----0--0--------0--0-0----0----0-|
|--2-------2--2-2--------------------------------------|
|--3-------3--3-3--------------------------------------|
|
|  |--3--|    |----3----|    |--3---|    |----3----|
|  E  E  E    E    E    E    E   E  E    E    E    E
|------------------------------------------------------|
|-12p10h12---15p==12p==10---10-----10---10--------10---|
|-------------------------------12-----------12--------|
|------------------------------------------------------|
|------------------------------------------------------|
|------------------------------------------------------|
|
|  |--3--|    |----3----|    |--3---|    |----3----|
|  E  E  E    E    E    E    E   E  E    E    E    E
|------------------------------------------------------|
|-12-10-12---15---12---10---10-----10---10--------10---|
|-------------------------------12-----------12--------|
|------------------------------------------------------|
|------------------------------------------------------|
|------------------------------------------------------|


  G                         C
   E.      S  S S    S    S  E.      S  S S    S      S
|--3-------3--3-3----3----3--0-------0--0-0----0------0-|
|--3-------3--3-3----3----3--1-------1--1-1----1------1-|
|--0-------0--0-0----0----0--0-------0--0-0----0------0-|
|--0-------0--0-0----0----0--2-------2--2-2-------------|
|--2-------2--2-2------------3-------3--3-3-------------|
|--3-------3--3-3---------------------------------------|
|
|  |--3--|    |----3----|    |--3--|    |----3-----|
|  E  E  E    E    E    E    E  E  E    E    E     E
|---------------------------12h15p12--------------------|
|-12p10h12---15p==12h==15--------------15p==12p===10----|
|-------------------------------------------------------|
|-------------------------------------------------------|
|-------------------------------------------------------|
|-------------------------------------------------------|
|
|  |--3--|    |----3----|    |--3--|    |----3-----|
|  E  E  E    E    E    E    E  E  E    E    E    +E
|---------------------------12-15-12--------------------|
|-12-10-12---15---12---15--------------15---12---(12)---|
|-------------------------------------------------------|
|-------------------------------------------------------|
|-------------------------------------------------------|
|-------------------------------------------------------|


  D                           G
   E.      S  S S    S      S  E.      S  S S S  S
|--2-------2--2-2----2------2--3-------3--3-3-3--3-||
|--3-------3--3-3----3------3--3-------3--3-3-3--3-||
|--2-------2--2-2----2------2--0-------0--0-0-0--0-||
|--0-------0--0-0----0------0--0-------0--0-0-0--0-||
|------------------------------2-------2--2-2------||
|------------------------------3-------3--3-3------||
|
|                                               Gtrs I, IV
|  |--3--|    |----3-----|     |--3--|
|  E  E  E    E    E     E     E  E  E    E   S  S
|-15p14h15---17p==15h===17----19p15p14---15-----15-||
|--------------------------------------------------||
|--------------------------------------------------||
|--------------------------------------------------||
|--------------------------------------------------||
|--------------------------------------------------||
|
|  |--3--|    |----3-----|     |--3--|
|  E  E  E    E    E    +E     E  E  E    E   E
|-15-14-15---17---15---(15)---19-15-14---15--------||
|--------------------------------------------------||
|--------------------------------------------------||
|--------------------------------------------------||
|--------------------------------------------------||
|--------------------------------------------------||


 Bridge
  G          C           G          D
    E. S E E  E. S E E     E. S E E  E. S E E
|---3--3-3-3--0--0-0-0-|---3--3-3-3--2--2-2-2-|
|---3--3-3-3--1--1-1-1-|---3--3-3-3--3--3-3-3-|
|---0--0-0-0--0--0-0-0-|---0--0-0-0--2--2-2-2-|
|---0--0-0-0--2--2-2---|---0--0-0-0--0--0-0-0-|
|---2--2-2----3--3-3---|---2--2-2-------------|
|---3--3-3-------------|---3--3-3-------------|
|
|  +W                     +W
|-(15)-----------------|-(15)-----------------|
|----------------------|----------------------|
|----------------------|----------------------|
|----------------------|----------------------|
|----------------------|----------------------|
|----------------------|----------------------|
|
| Gtr V
|   H  
comments
We did not receive enough feedback on this tab! Please rate:
1 2 3 4 5
I want to post or [tab]
guest
You may want to rate the tab now too:
select rating
Please do not post tabs as comments. Select "correction" instead!