Oops, an error
Loading. Please wait.

Whispers And Choirs Tab

338 views 3 this week
no commentswrite comment
1 2 3 4 5
please rate
Autoscroll
+/-
esc
set tempo
stop
Contributor
Difficulty
Tuning
intermediate
C# G# C# F# A# D#
Hey! There's an official Ultimate Guitar app which is ideal
for learning songs when you're away from computer. Get the app
WARNING: You are trying to view
                                    content from Ultimate-Guitar.com
                                    in an unauthorized application,
                                    which is prohibited.

                                    Please use an official Ultimate
                                    Guitar Tabs application for iPhone,
                                    iPad or Android to access legitimate
                                    chords, guitar, bass, and drum tabs
                                    from Ultimate-Guitar.com database.

                                    Type "ultimate guitar tabs" in Apple
                                    App Store's or Android Market's
                                    search to find the application.
-------------------------------------------------------------------------------
                      Whispers And Choirs - Flood Of Red
-------------------------------------------------------------------------------

Tabbed by: lucker2909
e-mail: lucker2909@seznam.cz

Tuning: Drop Db (C*)  -  C*  G*  C*  F*  A*  D*

RIFF 1

D#|:--8---------------------------|--8---------------------------|--8---------------------------|
A#|:-----10-----10----------10----|-----10-----10----------10----|-----10-----10----------10----|
F#|:---------7-----------7-------7|---------7-----------7-------7|---------7-----------7-------7|
C#|:------------------------------|------------------------------|------------------------------|
G#|:------------------------------|------------------------------|------------------------------|
C#|:------------------------------|------------------------------|------------------------------|

D#|--8--------------8------------:|
A#|-----10-----10------10------10:|
F#|---------7---------------7----:|
C#|------------------------------:|  X4
G#|------------------------------:|
C#|------------------------------:|

RIFF 2

D#|---------------------------8---8--|---------------------------8---6--|
A#|--10--10--10--10---8---8----10--10|--10--10--10--10---8---8----10--10|
F#|-----7---7---7---7--10--10--------|-----7---7---7---7--10--10--------|
C#|----------------------------------|----------------------------------|
G#|----------------------------------|----------------------------------|
C#|----------------------------------|----------------------------------|

D#|---------------------------8---8--|---------------------------8---8--|
A#|--10--10--10--10---8---8----10--10|---8-6---6---6---6-8---8----10--10|
F#|-----7---7---7---7--10--10--------|-------9---9---9----10--10--------|
C#|----------------------------------|----------------------------------|
G#|----------------------------------|----------------------------------|
C#|----------------------------------|----------------------------------|

RIFF 1 AGAIN

D#|:--8---------------------------|--8---------------------------|--8---------------------------|
A#|:-----10-----10----------10----|-----10-----10----------10----|-----10-----10----------10----|
F#|:---------7-----------7-------7|---------7-----------7-------7|---------7-----------7-------7|
C#|:------------------------------|------------------------------|------------------------------|
G#|:------------------------------|------------------------------|------------------------------|
C#|:------------------------------|------------------------------|------------------------------|

D#|--8--------------8------------:|
A#|-----10-----10------10------10:|
F#|---------7---------------7----:|
C#|------------------------------:|  X2
G#|------------------------------:|
C#|------------------------------:|

RIFF 2 AGAIN

D#|---------------------------8---8--|---------------------------8---6--|
A#|--10--10--10--10---8---8----10--10|--10--10--10--10---8---8----10--10|
F#|-----7---7---7---7--10--10--------|-----7---7---7---7--10--10--------|
C#|----------------------------------|----------------------------------|
G#|----------------------------------|----------------------------------|
C#|----------------------------------|----------------------------------|

D#|---------------------------8---8--|---------------------------8---8--|
A#|--10--10--10--10---8---8----10--10|---8-6---6---6---6-8---8----10--10|
F#|-----7---7---7---7--10--10--------|-------9---9---9----10--10--------|
C#|----------------------------------|----------------------------------|
G#|----------------------------------|----------------------------------|
C#|----------------------------------|----------------------------------|

CHORUS

#D|------------------------------------------------------------------|
#A|------------------------------------------------------------------|
#F|------------------------------------------------------------------|
#C|---0---0---0---0---0---0---0---0---0---0---0---0---0---0---0---0--|
#G|---0---0---0---0---0---0---0---0---0---0---0---0---0---0---0---0--|
#C|---0---0---0---0---0---0---0---0---0---0---0---0---0---0---0---0--|

#D|-------------------------------------------------------------------|
#A|-------------------------------------------------------------------|
#F|-------------------------------------------------------------------|
#C|---3---3---3---3---3---3---3---3---3---3---3---3---3-3-3-3-3-0-8-10|
#G|---0---0---0---0---0---0---0---0---0---0---0---0---0-0-0-0-0-0-8-10|
#C|---0---0---0---0---0---0---0---0---0---0---0---0---0-0-0-0-0-0-8-10|


#D|--------------------------------------------------------------------|
#A|--------------------------------------------------------------------|
#F|--------------------------------------------------------------------|
#C|-12-0-0-0-0-0-12-0-0-0-0-0-12-0-0-0-8-0-0-0-0-0-8-0-0-0-0-0-8-0-8-0-|
#G|-12-0-0-0-0-0-12-0-0-0-0-0-12-0-0-0-8-0-0-0-0-0-8-0-0-0-0-0-8-0-8-0-|
#C|-12-0-0-0-0-0-12-0-0-0-0-0-12-0-0-0-8-0-0-0-0-0-8-0-0-0-0-0-8-0-8-0-|

#D|------------------------------------------------------------------|
#A|------------------------------------------------------------------|
#F|------------------------------------------------------------------|
#C|-5-0-0-0-0-0-5-0-0-0-0-0-5-0-0-5-3-3-3-3-3-3-3-3-8-8-8-8-8-0-8-10-|
#G|-5-0-0-0-0-0-5-0-0-0-0-0-5-0-0-5-3-3-3-3-3-3-3-3-8-8-8-8-8-0-8-10-|
#C|-5-0-0-0-0-0-5-0-0-0-0-0-5-0-0-5-3-3-3-3-3-3-3-3-8-8-8-8-8-0-8-10-|


#D|--------------------------------------------------------------------|
#A|--------------------------------------------------------------------|
#F|--------------------------------------------------------------------|
#C|-12-0-0-0-0-0-12-0-0-0-0-0-12-0-0-0-8-0-0-0-0-0-8-0-0-0-0-0-8-0-8-0-|
#G|-12-0-0-0-0-0-12-0-0-0-0-0-12-0-0-0-8-0-0-0-0-0-8-0-0-0-0-0-8-0-8-0-|
#C|-12-0-0-0-0-0-12-0-0-0-0-0-12-0-0-0-8-0-0-0-0-0-8-0-0-0-0-0-8-0-8-0-|

#D|------------------------------------------------------------------|
#A|------------------------------------------------------------------|
#F|------------------------------------------------------------------|
#C|-5-0-0-0-0-0-5-0-0-0-0-0-5-0-0-5-3-3-3-3-3-3-3-3-7-7-7-7-7-7-7-7-|
#G|-5-0-0-0-0-0-5-0-0-0-0-0-5-0-0-5-3-3-3-3-3-3-3-3-7-7-7-7-7-7-7-7-|
#C|-5-0-0-0-0-0-5-0-0-0-0-0-5-0-0-5-3-3-3-3-3-3-3-3-7-7-7-7-7-7-7-7-|

RIFF 2 AGAIN

D#|---------------------------8---8--|---------------------------8---6--|
A#|--10--10--10--10---8---8----10--10|--10--10--10--10---8---8----10--10|
F#|-----7---7---7---7--10--10--------|-----7---7---7---7--10--10--------|
C#|----------------------------------|----------------------------------|
G#|----------------------------------|----------------------------------|
C#|----------------------------------|----------------------------------|

#D|---------------------------8---8--|---------------------------8---8--|
#A|--10--10--10--10---8---8----10--10|---8-6---6---6---6-8---8----10--10|
#F|-----7---7---7---7--10--10--------|-------9---9---9----10--10--------|
#C|----------------------------------|----------------------------------|
#G|----------------------------------|----------------------------------|
#C|----------------------------------|----------------------------------|

CHORUS 2

#D|--------------------------------------------------------------------|
#A|--------------------------------------------------------------------|
#F|--------------------------------------------------------------------|
#C|-12-0-0-0-----12-0-0-0-----12-0-0-0-8-0-0-0-----8-0-0-0-----8-0-8-0-|
#G|-12-0-0-0-----12-0-0-0-----12-0-0-0-8-0-0-0-----8-0-0-0-----8-0-8-0-|
#C|-12-0-0-0-----12-0-0-0-----12-0-0-0-8-0-0-0-----8-0-0-0-----8-0-8-0-|

#D|------------------------------------------------------------------|
#A|------------------------------------------------------------------|
#F|------------------------------------------------------------------|
#C|-5-0-0-0-----5-0-0-0-----5-0-0-5-3-3-3-3-3-3-3-3-8-8-8-8-8-0-8-10-|
#G|-5-0-0-0-----5-0-0-0-----5-0-0-5-3-3-3-3-3-3-3-3-8-8-8-8-8-0-8-10-|
#C|-5-0-0-0-----5-0-0-0-----5-0-0-5-3-3-3-3-3-3-3-3-8-8-8-8-8-0-8-10-|

#D|--------------------------------------------------------------------|
#A|--------------------------------------------------------------------|
#F|--------------------------------------------------------------------|
#C|-12-0-0-0-----12-0-0-0-----12-0-0-0-8-0-0-0-----8-0-0-0-----8-0-8-0-|
#G|-12-0-0-0-----12-0-0-0-----12-0-0-0-8-0-0-0-----8-0-0-0-----8-0-8-0-|
#C|-12-0-0-0-----12-0-0-0-----12-0-0-0-8-0-0-0-----8-0-0-0-----8-0-8-0-|

#D|----------------------------------------------------------------------------------|
#A|--------------------------------------------------8-8-8-8-8-8-8-8-8-8-8-8-8-------|
#F|--------------------------------------------------10101010101010109-9-9-9-9-------|
#C|-5-0-0-0-----5-0-0-0-----5-0-0-5-3-3-3-3-3-3-3-3----------------------------------|
#G|-5-0-0-0-----5-0-0-0-----5-0-0-5-3-3-3-3-3-3-3-3----------------------------------|
#C|-5-0-0-0-----5-0-0-0-----5-0-0-5-3-3-3-3-3-3-3-3----------------------------------|

LAST VERSE

#D|---------------------------------|--------------------------------|
#A|-10--10--10--10--10--10--10--10--|6---6---6---6---6---6---6---6---|
#F|-7---7---7---7---7---7---7---7---|9---9---9---9---9---9---9---9---|
#C|---------------------------------|--------------------------------|
#G|---------------------------------|--------------------------------|
#C|---------------------------------|--------------------------------|

#D|-8---8---8---8---8---8---8---8---|--------------------------------|
#A|-10--10--10--10--10--10--10--10--|10--10--10--10--11--11--11--11--|
#F|---------------------------------|12--12--12--12--14--14--14--14--|
#C|---------------------------------|--------------------------------|
#G|---------------------------------|--------------------------------|
#C|---------------------------------|--------------------------------|

#D|---------------------------------|--------------------------------|
#A|-10--10--10--10--10--10--10--10--|8---8---8---8---8---8---8---8---|
#F|-7---7---7---7---7---7---7---7---|10--10--10--10--10--10--10--10--|
#C|---------------------------------|--------------------------------|
#G|---------------------------------|--------------------------------|
#C|---------------------------------|--------------------------------|

#D|-8---8---8---8---8---8---8---8---|----------------------------------|
#A|-10--10--10--10--10--10--10--10--|10--10--10--10--11--11--11--11----|
#F|---------------------------------|12--12--12--12--14--14--14--14--14|
#C|---------------------------------|----------------------------------|
#G|---------------------------------|----------------------------------|
#C|---------------------------------|----------------------------------|
comments
We did not receive enough feedback on this tab! Please rate:
print report bad tab
1 2 3 4 5
I want to post or [tab]
guest
You may want to rate the tab now too:
select rating
Please do not post tabs as comments. Select "correction" instead!