Oops, an error
Loading. Please wait.

Hammerhead Tab

ver2
ver2

Whole song

Interactive

More versions @911Tabs.com
314 views 1 this week
no commentswrite comment
1 2 3 4 5
please rate
Autoscroll
+/-
esc
set tempo
stop
Contributor
Hey! There's an official Ultimate Guitar app which is ideal
for learning songs when you're away from computer. Get the app
WARNING: You are trying to view
                                    content from Ultimate-Guitar.com
                                    in an unauthorized application,
                                    which is prohibited.

                                    Please use an official Ultimate
                                    Guitar Tabs application for iPhone,
                                    iPad or Android to access legitimate
                                    chords, guitar, bass, and drum tabs
                                    from Ultimate-Guitar.com database.

                                    Type "ultimate guitar tabs" in Apple
                                    App Store's or Android Market's
                                    search to find the application.
-------------------------------------------------------------------------------
                             Hammerhead - Flotsam and Jetsam
-------------------------------------------------------------------------------
Band: Flotsam and Jetsam
Song: Hammerhead
Album: Doomsday for the Deceiver

Tabbed by: deathx88
Email: deathx88@yahoo.com

Tuning: Standard



Intro

      H         H          H        H          Q    S S S S S S S S S S S S  
E||---------------------|-------------------|-------------------------------|
B||---------------------|-------------------|-------------------------------|
G||--10-----------------|--7--------4-------|-------------------------------|
D||--10--------10-------|--7--------4-------|--2----------------------------|
A||---8--------10-------|--5--------2-------|--2----2-2-2-2-2-2-2-2-2-2-2-2-|
E||-------------8-------|-------------------|--0----0-0-0-0-0-0-0-0-0-0-0-0-|


repeat E chords and gradually slow down

  Q    Q    Q    Q     
----------------------|
----------------------|
----------------------|
--2----2----2----2----|
--2----2----2----2----|
--0----0----0----0----|





Riff 1

   E  H.           E     H.           E   E   
----------------------|----------------------|
----------------------|----------------------|
--10--9------------L--|--L------------L--10--|
--10--9------------L--|--L------------L--10--|
---8--7------------L--|--L------------L---8--|
----------------------|----------------------|


  W                    H         H            E  H.           E   
-------------------|----------------------|----------------------|
-------------------|----------------------|----------------------|
--9----------------|--12--------10--------|--10--9------------L--|
--9----------------|--12--------10--------|--10--9------------L--|
--7----------------|--10---------8--------|---8--7------------L--|
-------------------|----------------------|----------------------|


  H.           E   E     W                   H        H         
----------------------|-------------------|--------------------|
----------------------|-------------------|--------------------|
--L------------L--10--|--9----------------|--5--------7--------|
--L------------L--10--|--9----------------|--5--------7--------|
--L------------L---8--|--7----------------|--3--------5--------|
----------------------|-------------------|--------------------|


   E  H.           E     H.           E   E     W                 
----------------------|----------------------|-------------------|
----------------------|----------------------|-------------------|
--10--9------------L--|--L------------L--10--|--9----------------|
--10--9------------L--|--L------------L--10--|--9----------------|
---8--7------------L--|--L------------L---8--|--7----------------|
----------------------|----------------------|-------------------|


   H         H            E  H.           E     H.           E   E   
----------------------|----------------------|----------------------|
----------------------|----------------------|----------------------|
--12--------10--------|--10--9------------L--|--L------------L--10--|
--12--------10--------|--10--9------------L--|--L------------L--10--|
--10---------8--------|---8--7------------L--|--L------------L---8--|
----------------------|----------------------|----------------------|


  W                   H        Q    Q     
-------------------|---------------------|
-------------------|---------------------|
--9----------------|--5-------------7----|
--9----------------|--5--------5----7----|
--7----------------|--3--------5----5----|
-------------------|-----------3---------|




Riff 1b (verse riff)

   E  E  S S S S S S S S S S S S    S S S S S S S S S S S S S S  E   
---------------------------------|----------------------------------|
---------------------------------|----------------------------------|
--10--9--------------------------|------------------------------10--|
--10--9--------------------------|------------------------------10--|
---8--7--------------------------|-------------------------------8--|
---------0-0-0-0-0-0-0-0-0-0-0-0-|--0-0-0-0-0-0-0-0-0-0-0-0-0-0-----|


  E  S S S S S S S S S S S S S S     H         H         
---------------------------------|----------------------|
---------------------------------|----------------------|
--9------------------------------|--12--------10--------|
--9------------------------------|--12--------10--------|
--7------------------------------|--10---------8--------|
-----0-0-0-0-0-0-0-0-0-0-0-0-0-0-|----------------------|


   E  E  S S S S S S S S S S S S    S S S S S S S S S S S S S S  E   
---------------------------------|----------------------------------|
---------------------------------|----------------------------------|
--10--9--------------------------|------------------------------10--|
--10--9--------------------------|------------------------------10--|
---8--7--------------------------|-------------------------------8--|
---------0-0-0-0-0-0-0-0-0-0-0-0-|--0-0-0-0-0-0-0-0-0-0-0-0-0-0-----|


  E  S S S S S S S S S S S S S S    H        H         
---------------------------------|--------------------|
---------------------------------|--------------------|
--9------------------------------|--5--------7--------|
--9------------------------------|--5--------7--------|
--7------------------------------|--3--------5--------|
-----0-0-0-0-0-0-0-0-0-0-0-0-0-0-|--------------------|


   E  E  S S S S S S S S S S S S    S S S S S S S S S S S S S S  E   
---------------------------------|----------------------------------|
---------------------------------|----------------------------------|
--10--9--------------------------|------------------------------10--|
--10--9--------------------------|------------------------------10--|
---8--7--------------------------|-------------------------------8--|
---------0-0-0-0-0-0-0-0-0-0-0-0-|--0-0-0-0-0-0-0-0-0-0-0-0-0-0-----|


  E  S S S S S S S S S S S S S S     H         H         
---------------------------------|----------------------|
---------------------------------|----------------------|
--9------------------------------|--12--------10--------|
--9------------------------------|--12--------10--------|
--7------------------------------|--10---------8--------|
-----0-0-0-0-0-0-0-0-0-0-0-0-0-0-|----------------------|


   E  E  S S S S S S S S S S S S    S S S S S S S S S S S S S S  E   
---------------------------------|----------------------------------|
---------------------------------|----------------------------------|
--10--9--------------------------|------------------------------10--|
--10--9--------------------------|------------------------------10--|
---8--7--------------------------|-------------------------------8--|
---------0-0-0-0-0-0-0-0-0-0-0-0-|--0-0-0-0-0-0-0-0-0-0-0-0-0-0-----|


  E  S S S S S S S S S S S S S S    H        Q    Q     
---------------------------------|---------------------|
---------------------------------|---------------------|
--9------------------------------|--5-------------7----|
--9------------------------------|--5--------5----7----|
--7------------------------------|--3--------5----5----|
-----0-0-0-0-0-0-0-0-0-0-0-0-0-0-|-----------3---------|





solo riffs duing riff 1b


  S S  S S S  S  S  S S  S  S  S S S  S  S    Q    H.            
-------------------------------------------|--------------------|
-------------------------------------------|--------------------|
-----------------------------------------12|--9-----------------|
---------------------------------9-11-12---|--------------------|
----------------------9-10-12-10-----------|--------------------|
--7-9-10-9-9-10-12-10----------------------|--------------------|


  S S S S S S S S S S S S Q              
--------------------------------|
--5-6---5-5-6---5-5-6---5-5~----|
------7-------7-------7---------|
--------------------------------|
--------------------------------|
--------------------------------|


  E   S  S  S  S  S  S  S  S  S  S  S  S  S S  
--10--13-12-10---------------------------------|
---------------13-12-10----10-13-12-10---------|
------------------------12-------------12-10-9-|
-----------------------------------------------|
-----------------------------------------------|
-----------------------------------------------|




Riff 2 (chorus riff)

  S S S E  S E  S S S E  S E     S S S E  S E  S S S E  S E   
------------------------------|------------------------------|
------------------------------|------------------------------|
------------------------------|------------------------------|
--------4----4----------------|------------------------------|
--2-2-2-2--2-2--------5----5--|--------7----7--------4----4--|
----------------3-3-3-3--3-3--|--5-5-5-5--5-5--2-2-2-2--2-2--|


  S S S E  S E  S S S E  S E     S S S E  S E   Q    Q     
------------------------------|---------------------------|
------------------------------|---------------------------|
------------------------------|----------------10----9----|
--------4----4--------5----5--|--------7----7--10----9----|
--2-2-2-2--2-2--3-3-3-3--3-3--|--5-5-5-5--5-5---8----7----|
------------------------------|---------------------------|


  S S S E  S E  S S S E  S E     S S S E  S E  S S S E  S E   
------------------------------|------------------------------|
------------------------------|------------------------------|
------------------------------|------------------------------|
--------4----4----------------|------------------------------|
--2-2-2-2--2-2--------5----5--|--------7----7--------4----4--|
----------------3-3-3-3--3-3--|--5-5-5-5--5-5--2-2-2-2--2-2--|


  S S S E  S E  S S S E  S E     S S S S S S S S S S S S S S S S  
------------------------------|----------------------------------|
------------------------------|----------------------------------|
------------------------------|----------------------------------|
--------4----4--------5----5--|----------------------------------|
--2-2-2-2--2-2--3-3-3-3--3-3--|--5-5-5-5-5-5-5-5-5-5-5-5-5-5-5-5-|
------------------------------|----------------------------------|





First Solo (during riff 1b)

  S S S S S S S S  S  S  S  S  S  S  S  S  
------------------------------------------|
------------------------------------------|
--9-9-9-9-9-9-9-9-10-12-13-15-17-19-20-21-|
------------------------------------------|
------------------------------------------|
------------------------------------------|


   Q      S  S  S  S  S  S  S  S  S  S  S  S  
---------------------------------------------|
--17~----17-15----15-17-15----15-------------|
---------------16----------16----16-14-------|
---------------------------------------16-14-|
---------------------------------------------|
---------------------------------------------|


   S  S  S  S  S  S  S  S  S  S  S  S  S  S  S  S  
-----------------------------------15-17-15-14-15-|
-----------------15-17-15----15-17----------------|
--------14-16-16----------16----------------------|
--14-16-------------------------------------------|
--------------------------------------------------|
--------------------------------------------------|


   S  S  S  S  S  S  S  S  S  S  S  S  S  S  S  S  
--17-17-17-17-18-19-20-21-22-22-22-22-22-22-22-22-|
--------------------------------------------------|
--------------------------------------------------|
--------------------------------------------------|
--------------------------------------------------|
--------------------------------------------------|


   S  S  S  S  S  S  S  S  S  S  S  S  S  S  S  S  
--22-19-22-19-22-19-22-19-22-19-22-19-22-19-22-19-|
--------------------------------------------------|
--------------------------------------------------|
--------------------------------------------------|
--------------------------------------------------|
--------------------------------------------------|


   E    S  S  S  S  S  S  S  S  S  S  S  S  S  S  
--22b--19-22-19----19----------------------------|
----------------22----22-19----19----------------|
----------------------------21----21-19----19-21-|
----------------------------------------21-------|
-------------------------------------------------|
-------------------------------------------------|


   S  S  E   S  S  E   S  S  S  S  S  S  S  S  
----------------------------------------------|
--------19--------19--------22-19-20-19----19-|
--19-21-----19-21-----19-21-------------21----|
----------------------------------------------|
----------------------------------------------|
----------------------------------------------|


   S  S  S  S  S  S  S  S  S  S  S  S  S  S  S  S     H         H         
--------------------------------------------------|----------------------|
--22-19-20-19----19-------------------------------|----------------------|
--------------21----21-19----19-------------------|----------------------|
--------------------------21----21-19-19-17-------|----------------------|
--------------------------------------------19-17-|--19~-----------------|
--------------------------------------------------|----------------------|





Riff 2 (chorus) x2

  S S S E  S E  S S S E  S E     S S S E  S E  S S S E  S E   
------------------------------|------------------------------|
------------------------------|------------------------------|
------------------------------|------------------------------|
--------4----4----------------|------------------------------|
--2-2-2-2--2-2--------5----5--|--------7----7--------4----4--|
----------------3-3-3-3--3-3--|--5-5-5-5--5-5--2-2-2-2--2-2--|


  S S S E  S E  S S S E  S E     S S S E  S E   Q    Q     
------------------------------|---------------------------|
------------------------------|---------------------------|
------------------------------|----------------10----9----|
--------4----4--------5----5--|--------7----7--10----9----|
--2-2-2-2--2-2--3-3-3-3--3-3--|--5-5-5-5--5-5---8----7----|
------------------------------|---------------------------|


  S S S E  S E  S S S E  S E     S S S E  S E  S S S E  S E   
------------------------------|------------------------------|
------------------------------|------------------------------|
------------------------------|------------------------------|
--------4----4----------------|------------------------------|
--2-2-2-2--2-2--------5----5--|--------7----7--------4----4--|
----------------3-3-3-3--3-3--|--5-5-5-5--5-5--2-2-2-2--2-2--|


  S S S E  S E  S S S E  S E     S S S S S S S S S S S S S S S S  
------------------------------|----------------------------------|
------------------------------|----------------------------------|
------------------------------|----------------------------------|
--------4----4--------5----5--|----------------------------------|
--2-2-2-2--2-2--3-3-3-3--3-3--|--5-5-5-5-5-5-5-5-5-5-5-5-5-5-5-5-|
------------------------------|----------------------------------|

                               second time play

                                S S S E  S E  S E  S S E  S  
                               ------------------------------|
                               ------------------------------|
                               -----------------------7-7----|
                               --------7----7--5-5----7-7----|
                               --5-5-5-5--5-5--5-5----5-5----|
                               ----------------3-3-----------|



Riff 3 (bridge)


  S S S S S S S S S S S S S S S S    S S S S S S S S S S S S S S S S  
----------------------------------|----------------------------------|
----------------------------------|----------------------------------|
----------------------------------|----------------------------------|
----------------------------------|----------------------------------|
----------------------------------|------------------2-2-2-2-5-3-2-0-|
--2-2-2-2-2-2-2-2-3-3-3-3-5-3-2-0-|--2-2-2-2-2-2-2-2-----------------|


  S S S S S S S S S S S S S S S S    S S S S S S S S S E  S. S E  T  
----------------------------------|---------------------------------|
----------------------------------|---------------------------------|
----------------------------------|------------------5-5------------|
----------------------------------|------------------5-5-----5-5--L-|
----------------------------------|------------------3-3-----5-5--L-|
--2-2-2-2-2-2-2-2-3-3-3-3-5-3-2-0-|--2-2-2-2-2-2-2-2---------3-3--L-|


  S S S S S S S S S S S S S S S S    S S S S S S S S S S S S S S S S  
----------------------------------|----------------------------------|
----------------------------------|----------------------------------|
----------------------------------|----------------------------------|
----------------------------------|----------------------------------|
----------------------------------|------------------2-2-2-2-5-3-2-0-|
--2-2-2-2-2-2-2-2-3-3-3-3-5-3-2-0-|--2-2-2-2-2-2-2-2-----------------|


  S S S S S S S S S S S S S S S S    S S S S S S S S S E  S. S E  T  
----------------------------------|---------------------------------|
----------------------------------|---------------------------------|
----------------------------------|--------------------------7-7--L-|
----------------------------------|------------------5-5-----7-7--L-|
----------------------------------|------------------5-5-----5-5--L-|
--2-2-2-2-2-2-2-2-3-3-3-3-5-3-2-0-|--2-2-2-2-2-2-2-2-3-3------------|




Riff 3b (verse riff)

  W               W               W               H        S E  S. S E  T  
---------------|---------------|---------------|--------------------------|
---------------|---------------|---------------|--------------------------|
---------------|---------------|---------------|-----------5-5------------|
--4------------|--4------------|--4------------|--4--------5-5-----5-5--L-|
--4------------|--4------------|--4------------|--4--------3-3-----5-5--L-|
--2------------|--2------------|--2------------|--2----------------3-3--L-|



  W               W               W               H        S E  S. S E  T  
---------------|---------------|---------------|--------------------------|
---------------|---------------|---------------|--------------------------|
---------------|---------------|---------------|-------------------7-7--L-|
--4------------|--4------------|--4------------|--4--------5-5-----7-7--L-|
--4------------|--4------------|--4------------|--4--------5-5-----5-5--L-|
--2------------|--2------------|--2------------|--2--------3-3------------|




solo during riff 3b


  S  S  S  S  S  S  S  S  S  S S S S  S  S  S  
-----------------------------------------------|
-----------------------------------------------|
--11-11-11-11-11-11-11-11-11-11-9-9-9-11-11-11-|
-----------------------------------------------|
-----------------------------------------------|
-----------------------------------------------|


   S  S  S  S  S  S  S  S  S  S  S  S  S S S S  
-----------------------------------------------|
-----------------------------------------------|
--12-12-12-12-12-12-12-14-14-14-12-12-12-9-9-9-|
-----------------------------------------------|
-----------------------------------------------|
-----------------------------------------------|


   S  S  S  S  S  S  S  S  S  S  S  S  S S S S  
-----------------------------------------------|
-----------------------------------------------|
--11-11-11-11-11-11-11-11-11-11-12-12-12-9-9-9-|
-----------------------------------------------|
-----------------------------------------------|
-----------------------------------------------|


   S  S  S  S  S  S  S  S  S  Q      E.           
-----------------------------------------|-------|
-----------------------------------------|-------|
--11-11-11-11-11-11-11-11-11-11\~----L---|-------|
-----------------------------------------|-------|
-----------------------------------------|-------|
-----------------------------------------|-------|


   E    S  E    S  E    S  S   S  S  S  S  S  S  
-------14------14------14-----14-17-17-14-------|
--17b-----17b-----17b-----17b-------------17-14-|
------------------------------------------------|
------------------------------------------------|
------------------------------------------------|
------------------------------------------------|


   S  S  S  S  S  S  S  S  S  S  S  S  Q      
--14-17-14----14-----------------------------|
-----------17----17-14----14-----------------|
-----------------------16----16-14----16~----|
-----------------------------------14--------|
---------------------------------------------|
---------------------------------------------|


   S  S  S  S  S  S  S  S  S  S  S  S  S  S  S  S  
-----------------------14-17-14-------------------|
-----14-17-14----14-17----------17-14-17-14-------|
--16----------16----------------------------16-14-|
--------------------------------------------------|
--------------------------------------------------|
--------------------------------------------------|


   S  S  S  S  S  S  S  S  S  S  S   Q    S          
--------------------------------------------|-------|
--------------------------------------------|-------|
--16-14----14-------------------------------|-------|
--------16----16-14----14-------------------|-------|
--------------------16----16-14-------------|-------|
--------------------------------14~--L----L-|-------|


   H          E    E    E    E       E   E   E   E   S  S  E   E   E   
---------------------------------|--14--15--17--15--14-15-------------|
--17b--------17b--17b--17b--17b--|------------------------17--15--14--|
---------------------------------|------------------------------------|
---------------------------------|------------------------------------|
---------------------------------|------------------------------------|
---------------------------------|------------------------------------|


   E   E   S  S  E   E   E   E   E      E   E   E   E   H                  
------------------------------------|-----------------------------|-------|
------14--15-14---------------------|----------14--15--17~--------|-------|
--16------------16--14--------------|--14--16---------------------|-------|
------------------------16--14--16--|-----------------------------|-------|
------------------------------------|-----------------------------|-------|
------------------------------------|-----------------------------|-------|


   H          H            H          H            E.   E.   E.   E.   Q     
-----------------------|-----------------------|----------------------------|
--17b------------------|-----------------------|----------------------------|
-----------------------|--16b------------------|----------------------------|
-------------16~-------|-----------------------|--16---14--------14---------|
-----------------------|-----------------------|------------16--------16----|
-----------------------|-------------14~-------|----------------------------|


   E.   E.   E.   Q     E.                
----------------------------|
----------------------------|
----------------------------|
--14------------------------|
-------16---14--------------|
-----------------14~----L---|





Riff 4 (breakdown)

  W                  W                  W                  W                
------------------|------------------|------------------|------------------|
------------------|------------------|------------------|------------------|
--9---------------|--5---------------|--7---------------|--4---------------|
--9---------------|--5---------------|--7---------------|--4---------------|
--7---------------|--3---------------|--5---------------|--2---------------|
------------------|------------------|------------------|------------------|


  W                  W                  W                  W                
------------------|------------------|------------------|------------------|
------------------|------------------|------------------|------------------|
--9---------------|--5---------------|--7---------------|--L---------------|
--9---------------|--5---------------|--7---------------|--L---------------|
--7---------------|--3---------------|--5---------------|--L---------------|
------------------|------------------|------------------|------------------|






solo during Riff 4


  W                     W                     W
--12~----------------|---------------------|---------------------|
---------------------|--13~----------------|--15~----------------|
---------------------|---------------------|---------------------|
---------------------|---------------------|---------------------|
---------------------|---------------------|---------------------|
---------------------|---------------------|---------------------|


   |---3---|   |---3---|   |---3---|   |---3---|                         
   E   E   E   E   E   E   E   E   E   E   E   E      W                  
--------------------------------------------------|---------------------|
--12--13--15--13--12------12----------------------|---------------------|
----------------------14------14--12--14--12------|---------------------|
----------------------------------------------14--|--14~----------------|
--------------------------------------------------|---------------------|
--------------------------------------------------|---------------------|


   W                     W                  
---------------------|---------------------|
--13~----------------|--15~----------------|
---------------------|---------------------|
---------------------|---------------------|
---------------------|---------------------|
---------------------|---------------------|


             |---3---|   |---3---|   |---3---|                          
   S  S  E   E   E   E   E   E   E   E   E   E       W                  
--------12--12--13--15--13--15--17--15--17--19~--|--12~----------------|
--13-15------------------------------------------|---------------------|
-------------------------------------------------|---------------------|
-------------------------------------------------|---------------------|
-------------------------------------------------|---------------------|
-------------------------------------------------|---------------------|


   |-------3-------|   |---3---|   |-3-|                           
   Q     Q     E   E   E   E   E   E   Q        W                  
--------17----15--13--15--12--13--12--------|---------------------|
--15----------------------------------13----|--15~----------------|
--------------------------------------------|---------------------|
--------------------------------------------|---------------------|
--------------------------------------------|---------------------|
--------------------------------------------|---------------------|


   E.   E.   E   E   E.   E.      W                     W                  
------------------------------|---------------------|---------------------|
--13---15---17--15--13--------|---------------------|--13~----------------|
-------------------------14---|---------------------|---------------------|
------------------------------|--14~----------------|---------------------|
------------------------------|---------------------|---------------------|
------------------------------|---------------------|---------------------|


   W                     S  S  Q     S  S  Q     Q       
---------------------|--------17----15-17-22----22b~----|
--15~----------------|--13-15---------------------------|
---------------------|----------------------------------|
---------------------|----------------------------------|
---------------------|----------------------------------|
---------------------|----------------------------------|





Solo during Riff 1b

   Q      S  S  S  S  S  S  S  S  S  S  S  S  
--10~----10-12-13-12-10----10----------------|
------------------------13----13-12-10----10-|
---------------------------------------12----|
---------------------------------------------|
---------------------------------------------|
---------------------------------------------|


   S  S  S  S  S  S  S  S  S  S  S  S S  S  S  S  
--------10-12-13-12-10---------------------------|
--12-13----------------13-12-10------------------|
--------------------------------12-10-9----12-10-|
----------------------------------------12-------|
-------------------------------------------------|
-------------------------------------------------|


  S  S  S  S  S  S  S  S  S  S  S  S  S  S  S  S  
-------------------------10----------13-12-10-10-|
----10-12-13----10-12-13----13-12-10-------------|
--9----------12----------------------------------|
-------------------------------------------------|
-------------------------------------------------|
-------------------------------------------------|


   S  S  S  S  S S  S  S H             Q      E   E   Q      E   E   
-----------------------------------|--22b----22--19-----------------|
--13-12-10-------------------------|-----------------22b----22--19--|
-----------12-10-9----12-9~--------|--------------------------------|
-------------------12--------------|--------------------------------|
-----------------------------------|--------------------------------|
-----------------------------------|--------------------------------|


   S  S  S  S  S  S  S  S  H          
-------------------------------------|
--22-19----------------19-22~--------|
--------21-19----19-21---------------|
--------------21---------------------|
-------------------------------------|
-------------------------------------|


   S  S  S  S  S  S  S  S  S  S  S  S  S  S  S  S  
--22-19-------22-19-------22-19-------22-19-------|
--------22-19-------22-19-------22-19-------22-19-|
--------------------------------------------------|
--------------------------------------------------|
--------------------------------------------------|
--------------------------------------------------|


   S  S  S  S  S  S  S  S  H                                                  
--22-19-22-19-22-19-22-19-22b--------|
-------------------------------------|
-------------------------------------|
-------------------------------------|
-------------------------------------|
-------------------------------------|






Outro Riff

  S S S S S S S S S S S S S S S S    S S S S S S S S S S S S S S S S  
----------------------------------|----------------------------------|
----------------------------------|----------------------------------|
----------------------------------|----------------------------------|
----------------------------------|----------------------------------|
----------------------------------|------------------2-2-2-2-5-3-2-0-|
--2-2-2-2-2-2-2-2-3-3-3-3-5-3-2-0-|--2-2-2-2-2-2-2-2-----------------|


  S S S S S S S S S S S S S S S S    S S S S S S S S S E  S. S E  T  
----------------------------------|---------------------------------|
----------------------------------|---------------------------------|
----------------------------------|------------------5-5------------|
----------------------------------|------------------5-5-----5-5--L-|
----------------------------------|------------------3-3-----5-5--L-|
--2-2-2-2-2-2-2-2-3-3-3-3-5-3-2-0-|--2-2-2-2-2-2-2-2---------3-3--L-|


  H        S E  S. S E  T    Q       W                   W                 
--------------------------|-------|-------------------|-------------------|
--------------------------|-------|-------------------|-------------------|
-------------------7-7--L-|-------|-------------------|-------------------|
-----------5-5-----7-7--L-|-------|--2----------------|--L----------------|
-----------5-5-----5-5--L-|-------|--2----------------|--L----------------|
-----------3-3------------|-------|--0----------------|--L----------------|







Duration Legend
---------------
W - whole
H - half
Q - quarter
E - 8th
S - 16th
T - 32nd
X - 64th
. - note dotted
|-n-|  - n-tuplets


Tablature Legend
----------------
L - tied note
x - dead note
g - grace note
(n) - ghost note
> - accentuded note
NH - natural harmonic
AH - artificial harmonic
TH - tapped harmonic
SH - semi harmonic
PH - pitch harmonic
h - hammer on
p - pull off
b - bend
br - bendRelease
pb - preBend
pbr - preBendRelease
brb - bendReleaseBend
\n/ - tremolo bar dip
\n - tremolo bar dive
-/n - tremolo bar Release up
/n\ - tremolo bar inverted dip
/n - tremolo bar return
-\n - tremolo bar Release down
S - shift slide
s - legato slide
/ -  slide into from below or out of upwards
\ -  slide into from above or out of downwards
~ - vibrato
W - wide vibrato
tr - trill
TP - tremolo picking
T - tapping
S - slap
P - pop
< - fade in
^ - brush up
v - brush down
comments
We did not receive enough feedback on this tab! Please rate:
print report bad tab
1 2 3 4 5
I want to post or [tab]
guest
You may want to rate the tab now too:
select rating
Please do not post tabs as comments. Select "correction" instead!