Oops, an error
Loading. Please wait.

Iron Tears Tab

557 views 1 this week
no commentswrite comment
1 2 3 4 5
please rate
Autoscroll
+/-
esc
set tempo
stop
Contributor
Difficulty
intermediate
WARNING: You are trying to view
                                    content from Ultimate-Guitar.com
                                    in an unauthorized application,
                                    which is prohibited.

                                    Please use an official Ultimate
                                    Guitar Tabs application for iPhone,
                                    iPad or Android to access legitimate
                                    chords, guitar, bass, and drum tabs
                                    from Ultimate-Guitar.com database.

                                    Type "ultimate guitar tabs" in Apple
                                    App Store's or Android Market's
                                    search to find the application.
Band:  Flotsam and Jetsam
Album: Doomsday For The Deceiver
Song:  Iron Tears

Copyright (c)  (Metal Blade) (1986)
Version 1.0 - (06/03/07)

Transcribed By: Steve
Email:          stephen.elvidge1@ntlworld.com


.  - palm mute           /  - slide up to
\  - slide down to       ~  - vibrato
h  - hammer on           b  - Bend
p  - pull off            Suffixes for bend
t  - tap                 f  - full bend    h - half bend
ph - pinched harmonic    q  - quarter bend t - tap bend
*  - see comment         ^  - Hold bend    r release bend
x  - Stuccatto           ~  - vibrato bend
,  - slight palm mute    () - ghost note, sustained note
"  - tremolo note        <> - harmonic
pb - pre bend

Tuning E A D G B E



 Intro

|-------------------------------------------------------------------|
|-------------------------------------------------------------------|
|-------------------------------------------------------------------|
|-5\4/5-------------------------------------------------------------|
|-3\2/3-4-------------------------(4)-------------------------------|
|-------2-------------------------(2)-------------------------------|


|-------------------------------------------------------------------|
|-------------------------------------------------------------------|
|-------------------------------------------------------------------|
|-5\4---------------------------------------------------------------|
|-3\2-5-2-------------------------(2)-------------------------------|
|-----3-0-------------------------(0)-------------------------------|

|-------------------------------------------------------------------|
|-------------------------------------------------------------------|
|-------------------------------------------------------------------|
|-5\4/5-------------------------------------------------------------|
|-3\2/3-4-------------------------(4)-------------------------------|
|-------2-------------------------(2)-------------------------------|


|-------------------------------------------------------------------|
|-------------------------------------------------------------------|
|-------------------------------------------------------------------|
|-5\4/5-------------------------------------------------------------|
|-3\2/3-5-2-----------------------(2)-------------------------3p2---|
|-------3-0-----------------------(0)-----------------------------3-|

 Main Riff

    PM  PM  PM  PM  PM  PM  PM     
|---------------------------------------|
|---------------------------------------|
|---------------------------------------|
|-4---4---4---4---4---4---4---4---------|
|-4---4---4---4---4---4---4---4-3p2-3---|
|-2-022-022-022-022-022-022-032-------2-|

  PM  PM  PM  PM  PM  PM  PM     PM    
|-------------------------------------|
|-------------------------------------|
|-------------------------------------|
|---4---4---4---4---4---4---4---------|
|---4---4---4---4---4---4---4-3p22----|
|-022-022-022-022-022-022-022------3--|

  PM  PM  PM  PM  PM  PM  PM     
|-------------------------------------|
|-------------------------------------|
|-------------------------------------|
|---4---4---4---4---4---4---4---------|
|---4---4---4---4---4---4---4-3p2-3---|
|-022-022-022-022-022-022-022-------2-|



  PM  PM  PM     
|--------------------------------|
|--------------------------------|
|-------------6/7-4/6-2-4--------|
|---4---4---4-4/5-2/4-0-2--------|
|---4---4---4-------------3p2----|
|-022-022-022-----------------3--|

 Verse

  PM  PM  PM  PM  PM  PM  PM     
|-------------------------------------|
|-------------------------------------|
|-------------------------------------|
|---4---4---4---4---4---4---4---------|
|---4---4---4---4---4---4---4-3p2-3---|
|-022-022-022-022-022-022-022-------2-|

  PM  PM  PM  PM  PM  PM  PM     PM    
|--------------------------------------|
|--------------------------------------|
|--------------------------------------|
|---4---4---4---4---4---4---4----------|
|---4---4---4---4---4---4---4-3p22-----|
|-022-022-022-022-022-022-022------3p2-|

  PM  PM  PM  PM  PM  PM      
|-----------------------------------|
|-----------------------------------|
|-----------------------------------|
|---4---4---4---4---4---4-------7---|
|---4---4---4---4---4---4-3p2-3-5---|
|-022-022-022-022-022-022-----------|

 Bridge

 Guitar 1
    PM  PM  [-PM-]     PM  PM  PM
[-----------------------------------|
[-----------------------------------|
[-----------------0-----------------|
[-9---9---9-------0--9---9---9----7-|
[-7-777-777-7p5------7-777-777-77-5-|
[---------------7-3-----------------| 
[Guitar 2
[-----------------------------------|
[-----------------------------------|
[---9---9---9----/12\--9---99--9----|
[-----9---9---9--/12\----9---9----0-|
[-----------------------------------|
[-----------------------------------|


 Guitar 1
    PM  PM  [-PM-]     PM  PM  PM
[-----------------------------------|
[-----------------------------------|
[-----------------0-------0---------|
[-9---9---9-------0-------0------7/-|
[-7-777-777-7p5------77p5---77p5-5/-|
[---------------7-3-----------------| 
[ Guitar 2
[-----------------------------------|
[-----------------------------------|
[---9---9---9----/12--12--12-9-9----|
[-----9---9---9--/12/12---12--------|
[-----------------------------------|
[-----------------------------------|

 Guitar 1
    PM  PM  [-PM-]     PM  PM  PM
[-----------------------------------|
[-----------------------------------|
[-----------------0-----------------|
[-9---9---9-------0--9---9---9----7-|
[-7-777-777-7p5------7-777-777-77-5-|
[---------------7-3-----------------| 
[Guitar 2
[-----------------------------------|
[-----------------------------------|
[---9---9---9----/12\--9---99--9----|
[-----9---9---9--/12\----9---9----0-|
[-----------------------------------|
[-----------------------------------|


 Guitar 1
    PM  PM  [-PM-]     
[---------------------------------------|
[---------------------------------------|
[-----------------0---------------------|
[-9---9---9-------0--9---2--------------|
[-7-777-777-7p5------7-x-0--3p0-3p0-----|
[---------------7-3-----------------3p0-| 
[Guitar 2
[---------------------------------------|
[---------------------------------------|
[---9---9---9----/12---/14-\------------|
[-----9---9---9--/12\--/14-\------------|
[---------------------------------------|
[---------------------------------------|

  PM  PM      
|----------------------|
|----------------------|
|----------------------|
|---4---4--------------|
|---4---4-3p2-3p2------|
|-022-022---------3-2--|

  PM  PM   PM     
|-------------------|
|-------------------|
|-------------------|
|---4---4-----------|
|---4---4-3p22------|
|-022-022------3-2--|

  PM  PM      
|----------------------|
|----------------------|
|----------------------|
|---4---4--------------|
|---4---4-3p2-3p2------|
|-022-022---------3-2--|

  PM  PM   PM     
|-------------------|
|-------------------|
|-------------------|
|---4---4-----------|
|---4---4-3p22------|
|-022-022------3-2--|

 Lead fills
  PHPH~~   PH~~~   PHPH~~~~
|------------------------------|
|------------------------------|
|-------------------------x\---|
|-4b4b-----4b------4b4b---x\---|
|------------------------------|
|------------------------------|

 Chorus
                                   ~[PM] [PM] [PM]  PM
|--------------------------------------------------------|
|--------------------------------------------------------|
|--------------------------------------------------------|
|-9--(9)----------7--(7)----------------9----9----9---7--|
|-7--(7)--9--(9)--5--(5)--7--(7)--------7----7----7---5--|
|---------7--(7)----------5--(5)--\3-00---00---00---0----|

 [PM] [PM] [PM]  PM
|---------------------|
|---------------------|
|---------------------|
|----9----9----9---7--|
|----7----7----7---5--|
|-00---00---00---0----|

                                   ~[PM] [PM] [PM]  PM
|--------------------------------------------------------|
|--------------------------------------------------------|
|--------------------------------------------------------|
|-9--(9)----------7--(7)----------------9----9----9---7--|
|-7--(7)--9--(9)--5--(5)--7--(7)--------7----7----7---5--|
|---------7--(7)----------5--(5)--\3-00---00---00---0----|

 [PM] [PM] [PM]  PM
|----------------------|
|----------------------|
|----------------------|
|----9----9----9---12--|
|----7----7----7---10--|
|-00---00---00---0-----|

 [PM] [PM] [PM]  PM
|---------------------------------------|
|---------------------------------------|
|---------------------6/7-4/6-2-4-------|
|----9----9----9---7--4/5-2/4-0-2-------|
|----7----7----7---5--------------3p2---|
|-00---00---00---0--------------------3-|

 Rpt Verse, Bridge and Chorus


 [-------------PM--------------]
|-------------------------------|
|-------------------------------|
|-------------------------------|
|-------------------------------|
|-7-7-7-7-7-7-7-7-7-7-7-7-7-7-7-|
|-0-0-0-0-0-0-0-0-0-0-0-0-0-0-0-|

 Mid 8

|--------------------------------------------------------------|
|--------------------------------------------------------------|
|-0---(0)-------------0---(0)-------------0---(0)--------------|
|-0---(0)-------------0---(0)---2---(2)---0---(0)--------------|
|-----------4---(2)-------------0---(0)-------------4---(4)----|
|-3---(3)---2---(2)---3---(3)-------------3---(3)---2---(2)----|

 [PM] [PM] [PM]  PM
|---------------------|
|---------------------|
|---------------------|
|----9----9----9---7--|
|----7----7----7---5--|
|-00---00---00---0----|

|--------------------------------------------------------------|
|--------------------------------------------------------------|
|-0---(0)-------------0---(0)-------------0---(0)--------------|
|-0---(0)-------------0---(0)---2---(2)---0---(0)---2---(2)----|
|-----------4---(2)-------------0---(0)-------------0---(0)----|
|-3---(3)---2---(2)---3---(3)-------------3---(3)--------------|

 [PM] [PM] [PM]  PM
|---------------------|
|---------------------|
|---------------------|
|----9----9----9---7--|
|----7----7----7---5--|
|-00---00---00---0----|

 [PM] [PM] [PM]  PM
|----------------------|
|----------------------|
|----------------------|
|----9----9----9---12--|
|----7----7----7---10--|
|-00---00---00---0-----|

 [PM] [PM] [PM]  PM
|-----------------------------------------|
|-----------------------------------------|
|---------------------6/7-4/6-2-4---------|
|----9----9----9---7--4/5-2/4-0-2-------4-|
|----7----7----7---5--------------3p2-3-2-|
|-00---00---00---0------------------------|

 Backing for solo

 [PM] [PM]          [PM] [PM] 
|---------------------------------------|
|---------------------------------------|
|---------------------------------------|
|----4----4-----7--2----2----2-------4--|
|-22-2-22-2-3p2-5--0-00-0-00-0-3p2-3p2--|
|---------------------------------------|

 [PM] [PM]         [-----PM-----] 
|---------------------------------------|
|---------------------------------------|
|---------------------------------------|
|----4----4-----7----------------5-\4---|
|-22-2-22-2-3p2-5--5-5-5-5-5-5-5-3-\2---|
|---------------------------------------|

 [PM] [PM]          [PM] [PM] 
|---------------------------------------|
|---------------------------------------|
|---------------------------------------|
|----4----4-----7--2----2----2-------4--|
|-22-2-22-2-3p2-5--0-00-0-00-0-3p2-3p2--|
|---------------------------------------|

 [PM] [PM]         [-----PM-----] 
|---------------------------------------|
|---------------------------------------|
|---------------------------------------|
|----4----4-----7----------------5------|
|-22-2-22-2-3p2-5--5-5-5-5-5-5-5-3--5---|
|-----------------------------------3---|

 [PM] [PM] [PM]      [PM] [PM] [PM] 
|------------------------------------------|
|------------------------------------------|
|------------------------------------------|
|------------------------------------------|
|----4----4----5/7--2----2----2-------5\4--|
|-02-2-02-2-3p23/5--0-00-0-00-0-3p2-3-3\2--|

 [PM] [PM] [PM]    [-----PM-----] 
|---------------------------------------|
|---------------------------------------|
|---------------------------------------|
|---------------------------------------|
|----4----4-----7----------------5-\4---|
|-02-2-02-2-3p2-5--5-5-5-5-5-5-5-3-\2---|

 [PM] [PM] [PM]      [PM] [PM] [PM] 
|------------------------------------------|
|------------------------------------------|
|------------------------------------------|
|------------------------------------------|
|----4----4----5/7--2----2----2-------5\4--|
|-02-2-02-2-3p23/5--0-00-0-00-0-3p2-3-3\2--|

 [PM] [PM] [PM]    [-----PM-----] 
|---------------------------------------|
|---------------------------------------|
|---------------------------------------|
|--------------------------------7-/9---|
|----4----4-----7----------------5-/7---|
|-02-2-02-2-3p2-5--5-5-5-5-5-5-5--------|

 [PM] [PM] [PM]  PM
|---------------------|
|---------------------|
|---------------------|
|----9----9----9---7--|
|----7----7----7---5--|
|-00---00---00---0----|

 [PM] [PM] [PM]  PM
|----------------------|
|----------------------|
|----------------------|
|----9----9----9---12--|
|----7----7----7---10--|
|-00---00---00---0-----|

 [PM] [PM] [PM]  PM
|-----------------------------------------|
|-----------------------------------------|
|---------------------6/7-4/6-2-4---------|
|----9----9----9---7--4/5-2/4-0-2---------|
|----7----7----7---5--------------3p2-3-4-|
|-00---00---00---0----------------------2-|

 Rpt Verse, Bridge and Chorus

 [PM] [PM] [PM]  PM
|---------------------|
|---------------------|
|---------------------|
|----9----9----9---7--|
|----7----7----7---5--|
|-00---00---00---0----|

 [PM] [PM] [PM]  PM
|----------------------|
|----------------------|
|----------------------|
|----9----9----9---12--|
|----7----7----7---10--|
|-00---00---00---0-----|

 [PM] [PM] [PM]  PM
|-----------------------------------------------|
|-----------------------------------------------|
|---------------------6/7-4/6-2-4---------------|
|----9----9----9---7--4/5-2/4-0-2---------------|
|----7----7----7---5--------------3p2---2--(2)--|
|-00---00---00---0--------------------3-0--(0)--|
 


END

comments
We did not receive enough feedback on this tab! Please rate:
1 2 3 4 5
I want to post or [tab]
guest
You may want to rate the tab now too:
select rating
Please do not post tabs as comments. Select "correction" instead!