Oops, an error
Loading. Please wait.

Flyleaf Tab

ver1
ver1

Album

More versions @911Tabs.com
16,831 views 4 this week
4 commentsread comments
1 2 3 4 5
excellent!
x 7
Autoscroll
+/-
esc
set tempo
stop
Difficulty
Tuning
intermediate
D A D G B E
Hey! There's an official Ultimate Guitar app which is ideal
for learning songs when you're away from computer. Get the app
WARNING: You are trying to view
                                    content from Ultimate-Guitar.com
                                    in an unauthorized application,
                                    which is prohibited.

                                    Please use an official Ultimate
                                    Guitar Tabs application for iPhone,
                                    iPad or Android to access legitimate
                                    chords, guitar, bass, and drum tabs
                                    from Ultimate-Guitar.com database.

                                    Type "ultimate guitar tabs" in Apple
                                    App Store's or Android Market's
                                    search to find the application.
I take no credit for this I just thought it would be nice to have the album tab. I 
much made this for me. Thank you to everyone that tabed all these out.


Im So Sick Tab by Flyleaf, www.Ultimate-Guitar.Com

----------------------------------------------------------------------------
			     I'm So Sick - Flyleaf
----------------------------------------------------------------------------
Tabbed by: Token716

Tuning: Dropped D

LEGEND:
b   - bend
=   - hold bend; also acts as connecting device for hammers/pulls
()  - note is tied to the prior note (used to extend a notes duration
      beyond one measure.
E   - Eigth note
Q   - Quarter note
H   - Half note


-=INTRO=- (Played by bass)
[6x] (12 bars/measures)


-=CHORUS=-
                                   [4x]
e|----------------|------------------|
B|----------------|------------7-7-7-|
G|----------------|------------x-x-x-|
D|-3--0-3-0-3-4-3-|-0-4-/6-6-0-4-4-4-|
A|-3--0-3-0-3-4-3-|-0-4-/6-6-0-------|
D|-3--0-3-0-3-4-3-|-0-4-/6-6-0-------|


-=BUILD=-
                                                                       [2x]
e|-----------------|-----------------|-----------------|-----------------|
B|-----------------|-----------------|-----------------|-----------------|
G|-----------------|-----------------|-----------------|-----------------|
D|-8-8-8-8-8-8-8-8-|-8-8-8-8-8-8-8-8-|-5-5-5-5-5-5-5-5-|-5-5-5-5-5-5-5-5-|
A|-8-8-8-8-8-8-8-8-|-8-8-8-8-8-8-8-8-|-5-5-5-5-5-5-5-5-|-5-5-5-5-5-5-5-5-|
D|-8-8-8-8-8-8-8-8-|-8-8-8-8-8-8-8-8-|-5-5-5-5-5-5-5-5-|-5-5-5-5-5-5-5-5-|


-=VERSE 1=-
               E
e|-8-----|-(8)----|-7------|-(7)----|-10-----|-(10)---|--------|--------|
B|-------|-----7--|--------|--------|--------|--------|-10-----|-(10)---|
G|-------|--------|--------|--------|--------|--------|--------|--------|
D|-------|--------|--------|--------|--------|--------|--------|--------|
A|-------|--------|--------|--------|--------|--------|--------|--------|
D|-------|--------|--------|--------|--------|--------|--------|--------|
*Notes in parenthesis are tied to the prior note

                                      H   H     H  H
|-14-----|-(14)---|--------|--------|-10------|---------|---------|
|--------|--------|-5------|-(5)----|-----10--|-8--10---|-15------|
|--------|--------|--------|--------|---------|---------|---------|
|--------|--------|--------|--------|---------|---------|---------|
|--------|--------|--------|--------|---------|---------|---------|
|--------|--------|--------|--------|---------|---------|---------|


|---------------------|
|-15--15--15b16===15==|
|---------------------|
|---------------------|
|---------------------|
|---------------------|
*1/2 bend on the 3rd stroke and held for the 4th (feel it)


-=BUILD=-  [2x]


-=CHORUS=- [2x]


-=VERSE 2=-
   E                                                     Q
e|-10-----|--------|-10-----|-(10)---|-8------|-(8)----|-7------|-(7)----|
B|----10--|-(10)---|--------|--------|--------|------7-|--------|--------|
G|--------|--------|--------|--------|--------|--------|--------|--------|
D|--------|--------|--------|--------|--------|--------|--------|--------|
A|--------|--------|--------|--------|--------|--------|--------|--------|
D|--------|--------|--------|--------|--------|--------|--------|--------|

                                                         E
|-10------|-(10)----|---------|---------|-14------|-(14)----|
|---------|---------|-10------|-(10)----|---------|------13-|
|---------|---------|---------|---------|---------|---------|
|---------|---------|---------|---------|---------|---------|
|---------|---------|---------|---------|---------|---------|
|---------|---------|---------|---------|---------|---------|


|-14--14--14--14b15==|=14==14==14==14==|
|--------------------|-----------------|
|--------------------|-----------------|
|--------------------|-----------------|
|--------------------|-----------------|
|--------------------|-----------------|
*1/2 bend on the 4th stroke and held through the 5th, 6th, 7th, & 8th (feel it)


-=BUILD=- [x4]
  *2nd time through, replace last measure with the following...

e|-----------------|
B|---------7-7-7-7-|
G|---------x-x-x-x-|
D|-5-5-5-0-4-4-4-4-|
A|-5-5-5-0---------|
D|-5-5-5-0---------|


-=CHORUS=- [2x]


-=BUILD=-  [2x]


-=CHORUS=- [4x]
  *4th time through is played nearly the same except...

e|----------------|------------------|---|
B|----------------|------------7-7-7-|-7-|
G|----------------|------------x-x-x-|-x-|
D|-3--0-3-0-3-4-3-|-0-4-/6-6-0-4-4-4-|-4-|
A|-3--0-3-0-3-4-3-|-0-4-/6-6-0-------|---|
D|-3--0-3-0-3-4-3-|-0-4-/6-6-0-------|---|
                                       ^
                                       |
                                 ...1 extra chord


Title: Fully Alive
Artist: Flyleaf

Tuning: Drop D - DADGBE

Key: 	/ = slide up
	\ = slide down
        PM = palm mute

I don't think this is the album version for those that are seeking it, but this is the
that i have, and the more popular one thats played on the radio most of the time


Intro
e|---------------------------|
B|---------------------------|
G|---------------------------|
D|---------------------------| x2
A|---------------------------|
D|--3--0--3--5--8--5--8--10--|

e|----------------------------------------------|
B|----------------------------------------------|
G|----------------------------------------------|
D|----------------------------------------------|
A|----------------------------------------------|
D|--3--0--3--5--8--5--8--10----8--5--8----5--0--|

e|----------------------------------------------|
B|----------------------------------------------|
G|----------------------------------------------|
D|--3--0--3--5--8--5--8--10----8--5--8----5--0--| x2
A|--3--0--3--5--8--5--8--10----8--5--8----5--0--|
D|--3--0--3--5--8--5--8--10----8--5--8----5--0--|


Verse x4
e|---------------------------------------------------------------------------|
B|---------------------------------------------------------------------------|
G|---------------------------------------------------------------------------|
D|--3--0-------5--0----------------------------------------------------------|
A|--3--0-------5--0------3--0--3--5--8--5--8--10--3--0--3--5--8--5--8--10----|
D|--3--0-------5--0------3--0--3--5--8--5--8--10--3--0--3--5--8—-5--8--10----|
                        |----------------------PM----------------------------|

Chorus x2
e|-------------------------------------------------------------------|
B|-------------------------------------------------------------------|
G|--7-7-7-7-7-7-7-7-7-7-7-7-10-10-10---------------------------------|
D|--7-7-7-7-7-7-7-7-7-7-7-7-10-10-10-5-5-5/8-8-8-8-8-8-8-0--3--3--5--|
A|--5-5-5-5-5-5-5-5-5-5-5-5--8--8--8-5-5-5/8-8-8-8-8-8-8-0--3--3--5--|
D|--0-0-0-0-0-0-0-0-0-0-0-0----------5-5-5/8-8-8-8-8-8-8-0--3--3--5--|


Verse Altered
e|---------------------------------------------------|
B|---------------------------------------------------|
G|---------------------------------------------------|
D|--3--0-------5--0----------------------------------| x3
A|--3--0-------5--0------3--0--3--5--8--5--8--10-----|
D|--3--0-------5--0------3--0--3--5--8--5--8--10-----|
                        |----------PM----------------|

e|---------------------------------------------------------------------|
B|---------------------------------------------------------------------|
G|---------------------------------------------------------------------|
D|--3--0-------5--0----------------------------------------------------|
A|--3--0-------5--0------3--0--3--5--8--5--8--10----8--5--8----5--0----|
D|--3--0-------5--0------3--0--3--5--8--5--8--10----8--5--8----5--0----|
                        |-------------------PM-------------------------|


Chorus x2
e|-------------------------------------------------------------------|
B|-------------------------------------------------------------------|
G|--7-7-7-7-7-7-7-7-7-7-7-7-10-10-10---------------------------------|
D|--7-7-7-7-7-7-7-7-7-7-7-7-10-10-10-5-5-5/8-8-8-8-8-8-8-0--3--3--5--|
A|--5-5-5-5-5-5-5-5-5-5-5-5--8--8--8-5-5-5/8-8-8-8-8-8-8-0--3--3--5--|
D|--0-0-0-0-0-0-0-0-0-0-0-0----------5-5-5/8-8-8-8-8-8-8-0--3--3--5--|


Solo
e|------------------------------------------------------------------|
B|------------------------------------------------------------------|
G|------------------------------------------------------------------|
D|----------5-5-5-5-3-3-3-3-3-10-10-10-10/12-12-12-12-12-12-12-12/--|
A|--5-5-5-5---------------------------------------------------------|
D|------------------------------------------------------------------|

e|--------------------------------------------------------------------|
B|--------------------------------------------------------------------|
G|--12-12-12-12\10-10-10-10-------------------------------------------|
D|--------------------------12-12-12-12-12-12-12-12-----------5-5-5/--|
A|--------------------------------------------------3-3-3-3-3---------|
D|--------------------------------------------------------------------|

e|-------------------------------------|
B|-------------------------------------|
G|-------------------------------------|
D|--7-7-7-7-7\3-3-3-3/5-5-5-5-5-5-5-5--|
A|-------------------------------------|
D|-------------------------------------|

e|------------------------------------------------------------------|
B|------------------------------------------------------------------|
G|------------------------------------------------------------------|
D|----------5-5-5-5-3-3-3-3-3-10-10-10-10/12-12-12-12-12-12-12-12/--|
A|--5-5-5-5---------------------------------------------------------|
D|------------------------------------------------------------------|

e|--------------------------------------------------------------------|
B|--------------------------------------------------------------------|
G|--14-14\12-12\10-10-10-10-------------------------------------------|
D|--------------------------12-12-12-12-12-12-12-12-----------5-5-5/--|
A|--------------------------------------------------3-3-3-3-3---------|
D|--------------------------------------------------------------------|

e|-------------------------------------|
B|-------------------------------------|
G|-------------------------------------|
D|--7-7-7-7-7\3-3-3-3/5-5-5-5-5-5-5-5--|
A|-------------------------------------|
D|-------------------------------------|

e|------------------------------------------------------------------|
B|------------------------------------------------------------------|
G|------------------------------------------------------------------|
D|----------5-5-5-5-3-3-3-3-3-10-10-10-10/12-12-12-12-12-12-12-12/--|
A|--5-5-5-5---------------------------------------------------------|
D|------------------------------------------------------------------|

e|--------------------------------------------------------------------|
B|--------------------------------------------------------------------|
G|--12-12-12-12\10-10-10-10-------------------------------------------|
D|--------------------------12-12-12-12-12-12-12-12-----------5-5-5/--|
A|--------------------------------------------------3-3-3-3-3---------|
D|--------------------------------------------------------------------|

e|------------------------------------|
B|------------------------------------|
G|------------------------------------|
D|--7-7-7-7-7-5--3---5-5-5-5-5-5-5-5--|
A|------------------------------------|
D|------------------------------------|

e|------------------------------------------------------------------|
B|------------------------------------------------------------------|
G|------------------------------------------------------------------|
D|----------5-5-5-5-3-3-3-3-3-10-10-10-10/12-12-12-12-12-12-12-12/--|
A|--5-5-5-5---------------------------------------------------------|
D|------------------------------------------------------------------|

e|--------------------------------------------------------------------|
B|--------------------------------------------------------------------|
G|--12-12-12-12\10-10-10-10-------------------------------------------|
D|--------------------------12-12-12-12-12-12-12-12-----------5-5-5/--|
A|--------------------------------------------------3-3-3-3-3---------|
D|--------------------------------------------------------------------|

e|------------------------------------|
B|------------------------------------|
G|------------------------------------|
D|--7-7-7-7-7-5--3---5-5-5-5-5-5-5-5--|
A|------------------------------------|
D|------------------------------------|


Chorus Altered x4
e|-------------------------------------------------------------------------|
B|-------------------------------------------------------------------------|
G|-------------------------------------------------------------------------|
D|-3-3-3-3-3-3-3-3-10-10-10-10-10-10-10-10-8-8-8-8-8-8-8-8-8-8-8-8-8-8-8-8-|
A|-3-3-3-3-3-3-3-3-10-10-10-10-10-10-10-10-8-8-8-8-8-8-8-8-8-8-8-8-8-8-8-8-|
D|-3-3-3-3-3-3-3-3-10-10-10-10—10-10-10-10-8-8-8-8-8-8-8-8-8-8-8-8-8-8-8-8-|


Outro
e|----------------------------------------------|
B|----------------------------------------------|
G|----------------------------------------------|
D|--3--0--3--5--8--5--8--10----8--5--8----5--0--|
A|--3--0--3--5--8--5--8--10----8--5--8----5--0--|
D|--3--0--3--5--8--5--8--10----8--5--8----5--0--|


intro/pre-chorus
e(--------------------------------------------)
b(--------------------------------------------)
g(---------------------------------------5555-)
d(--4-4-/9-999-4-4-/9-999-4-4-/9-999-7-5-5555-)
a(--4-4-/9-999-4-4-/9-999-4-4-/9-999-7-5-3333-)
D(--4-4-/9-999-4-4-/9-999-4-4-/9-999-7-5------)

pre-chorus(lead)
e(-------------------)
b(--8/11-11-11-11-11-)
g(-------------------)
d(-------------------)
a(-------------------)
D(-------------------)

verse
e(----------7-------7------7---------7---------7----7-)
b(--7-7---7---7---7---7h10---10-7h10---10-7h10---10---)
g(------9-------9-------------------------------------)
d(----------------------------------------------------)
a(----------------------------------------------------)
D(----------------------------------------------------)

chorus(x2)
e(-----------------)
b(-----------------)
g(-----------------)
d(--777x544x777222-)
a(--777x544x777222-)
D(--777x544x777222-)

chorus(lead)(x2)
e(-----------)
b(--10-7-----)
g(-------9-7-)
d(-----------)
a(-----------)
D(-----------)

second post-chorus
e(---------------------------)
b(---------------------------)
g(---------------------------)
d(---------------------------)
a(---------------------------)
D(--222222220000000022222222-)
  pm........................

bridge
e(-------------------------)
b(-------------------------)
g(-------------------------)
d(-------------------------)
a(--2-2-0-0-2-2-0-0-555555-)
D(-------------------------)

bridge(lead)
e(--------------------------)
b(--------------------------)
g(--------------------------)
d(--10-10-10-10-10-10-10-10-)
a(--------------------------)
D(--------------------------)

second part of bridge is the pre-chorus with a different lead
e(---------------7/9-6/7-/9-7/9-7/5-5/7-)
b(--7-7-7-77-777------------------------)
g(--------------------------------------)
d(--------------------------------------)
a(--------------------------------------)
D(--------------------------------------)

Intro: x4
e|-------------------|
b|-------------------|
g|-------------------|
d|--7777885577558877-|
a|--7777885577558877-|
D|--7777885577558877-|

Verse 1:
e|------|
b|------|
g|------|
d|--777-|
a|--777-|
D|------|
  pm...

e|------------|
b|------------|
g|------------|
d|--777777775-|
a|--777777775-|
D|--777777775-|
  pm.........

Chorus: x2
e|-----------------------------------------------------|
b|-----------------------------------------------------|
g|----------------5-555-555-55555----------------------|
d|7-777-777-77777-5-555-555-55555-5-555-555-55555-3-333|
a|7-777-777-77777-3-333-333-33333-5-555-555-55555-3-333|
D|7-777-777-77777-----------------5-555-555-55555-3-333|

Intro x2
e|-------------------|
b|-------------------|
g|-------------------|
d|--7777885577558877-|
a|--7777885577558877-|
D|--7777885577558877-|

Chorus: x2
e|-----------------------------------------------------|
b|-----------------------------------------------------|
g|----------------5-555-555-55555----------------------|
d|7-777-777-77777-5-555-555-55555-5-555-555-55555-3-333|
a|7-777-777-77777-3-333-333-33333-5-555-555-55555-3-333|
D|7-777-777-77777-----------------5-555-555-55555-3-333|

Intro x2
e|-------------------|
b|-------------------|
g|-------------------|
d|--7777885577558877-|
a|--7777885577558877-|
D|--7777885577558877-|

Interlude: this part is slow
e|-------------------------------------------------------------------|
b|--8/10-10-8/5-8/10---------8/10-10-8/10-8-8/10-10-8/5-8/10---------|
g|-------------------9-7h9-7---------------------------------9-7h9-7-|
d|-------------------------------------------------------------------|
a|-------------------------------------------------------------------|
D|-------------------------------------------------------------------|

e|----------------------------------------|
b|10-10-10-10-1010101010101010101010101010|
g|----------------------------------------|
d|----------------------------------------|
a|----------------------------------------|
D|----------------------------------------|

Ending Chorus:
e|--------------------------------------------------------|
b|--------------------------------------------------------|
g|----------------5-555-555-55555-------------------------|
d|7-777-777-77777-5-555-555-55555-5-555-555-55555-3-3-3-3-|
a|7-777-777-77777-3-333-333-33333-5-555-555-55555-3-3-3-3-|
D|7-777-777-77777-----------------5-555-555-55555-3-3-3-3-|

e|-----------------------------------------------------|
b|-----------------------------------------------------|
g|----------------5-555-555-55555----------------------|
d|7-777-777-77777-5-555-555-55555-5-555-555-55555-3-333|
a|7-777-777-77777-3-333-333-33333-5-555-555-55555-3-333|
D|7-777-777-77777-----------------5-555-555-55555-3-333|

e|-----------------------------------------------------|
b|-----------------------------------------------------|
g|----------------5-555-555-55555----------------------|
d|7-777-777-77777-5-555-555-55555-5-555-555-55555-33333|
a|7-777-777-77777-3-333-333-33333-5-555-555-55555-33333|
D|7-777-777-77777-----------------5-555-555-55555-33333|

Flyleaf
Sorrow
Tuning:DADGBE
x=dead note

Intro
E------------------------------------------------------------------|
B------------------------------------------------------------------|
G------------------------------------------------------------------|
D--10-12-0-3-5-8-XX-10-12-0-3-5-8-X-10-12-0-3-5-8--10-12-0-3-5-7-8-|
A--10-12-0-3-5-8-XX-10-12-0-3-5-8-X-10-12-0-3-5-8--10-12-0-3-5-7-8-|
D--10-12-0-3-5-8-XX-10-12-0-3-5-8-X-10-12-0-3-5-8--10-12-0-3-5-7-8-|

Verse
E-1-1---------------------1-1--------------------------------------|
B-------1----3-3---5\1----------1----3-3---------------------------|
G------------------------------------------------------------------|
D-----2--2/3-----------------2--2/3--------------------------------|
A----------------3------1------------------------------------------|
D------------------------------------------------------------------|

1st Guitar
E-----------------------------------------------------------------|
B-3-3-3-----3-3-3-----3-3-3--5-5--8-8-8---------------------------|
G-----------------------------------------------------------------|
D-----------------------------------------------------------------|
A-----------------------------------------------------------------|
D-----------------------------------------------------------------|
..familier breath of my old lies(same goes for 2nd guitar)

2nd Guitar(Sameer's guitar with violin stick)
E-----------------------------------------------------------------|
B-----------------------------------------------------------------|
G-----------------------------------------------------------------|
D--5--7--0--10----------------------------------------------------|
A--5--7--0--10----------------------------------------------------|
D--5--7--0--10----------------------------------------------------|

1st guitar
E---1-1-----------------------------------------------------------|
B--------1-1---3-3---5-5------------------------------------------|
G-----------------------------------------------------------------|
D------2-----3----------------------------------------------------|
A-1----------------3-----5----------------------------------------|
D-----------------------------------------------------------------|
..Soon he will perferate the fabric..

Chorus                 x2
E---------------------------|-------------------------------------|
B--------------5-6-5-1-5----|-------------------------------------|
G--------------5-5-5-0-5----|-------------------------------------|
D-888-0-333333--------------|-888-0-333-777--888-777-0------------|
A-888-0-333333--------------|-888-0-333-777--888-777-0------------|
D-888-0-333333--------------|-888-0-333-777--888-777-0------------|


Verse 2
E-1-1-1----------------------1-1-----------------------------------|
B-------1------3-3----5-5-----------1----3-3-----------------------|
G------------------------------------------------------------------|
D---------2\3---------------------2---2\3--------------------------|
A-------------------3------1---------------------------------------|
D------------------------------------------------------------------|

1st Guitar
2nd Guitar
1st Guitar( soon he will..)
Chorus


1st Guitar(bridge/guitar solo)
E---------------------------------------------------------------------|
B---------------------------------------------------------------------|
G----9-10------------------9-10----------------9-10-------------------|
D-7-8----7-8-7----------7-8----7-8-7--------7-8----7-8-7----------7-8-|
A-------------8-7-8-10-8------------8-7-8-10------------8-7-8-10-8----|
D---------------------------------------------------------------------|

1st guitar cont.
E---------------------------------------------------------------------|
B-------------------------------------------------------------8-8-8-8-|
G-9-10------------------9-10----------------9-10----------------------|
D-----7-8-7----------7-8----7-8-7--------7-8----7-8-7-----------------|
A----------8-7-8-10-8------------8-7-8-10------------8-7-8-10-8-------|
D---------------------------------------------------------------------|

2nd Guitar(during the solo background)
E-------------------------------------------------------------------------|
B-------------------------------------------------------------------------|
G-------------------------------------------------------------------------|
D-555555-777777-8888888---555555-777777-88-0---555555-777777-888888888888-|
A-555555-777777-8888888---555555-777777-88-0---555555-777777-888888888888-|
D-555555-777777-8888888---555555-777777-88-0---555555-777777-888888888888-|

2nd Guitar cont.
E--------------------------------------------------------------------|
B--------------------------------------------------------------------|
G--------------------------------------------------------------------|
D-333333333333-10-10-------------------------------------------------|
A-333333333333-10-10-------------------------------------------------|
D-333333333333-10-10-------------------------------------------------|


Chorus              X2
E---------------------------|----------------------------------------|
B--------------5-6-5-1-5----|-----------------------------2\3-222----|
G--------------5-5-5-0-5----|----------------------------------------|
D-888-0-333333--------------|-888-0-333-777-888-777-000--------------|
A-888-0-333333--------------|-888-0-333-777-888-777-000--------------|
D-888-0-333333--------------|-888-0-333-777-888-777-000--------------|

End
E--------------------------------------------------------------------|
B--------------------------------------------------------------------|
G--------------------------------------------------------------------|
D-10-12-0-3-5-8-XX-10-12-0-3-5-8-X-10-12-0-3-5-8--10-12-0-3-5-8------|
A-10-12-0-3-5-8-XX-10-12-0-3-5-8-X-10-12-0-3-5-8--10-12-0-3-5-8------|
D-10-12-0-3-5-8-XX-10-12-0-3-5-8-X-10-12-0-3-5-8--10-12-0-3-5-8------|

E--------------------------------------------------------------------|
B--------------------------------------------------------------------|
G--------------------------------------------------------------------|
D-x-x-x-10-12-0-3-5-8--10-12-0-3-5-8---------------------------------|
A-x-x-x-10-12-0-3-5-8--10-12-0-3-5-8---------------------------------|
D-x-x-x-10-12-0-3-5-8--10-12-0-3-5-8---------------------------------|
..Joy will come...

Tuning is drop D (dADGBE)

| /  slide up
| \  slide down
| h  hammer-on
| p  pull-off
| ~  vibrato
| +  harmonic
| x  Mute note
| PM Palm mute

both guitars (those are 10s, not 1s and 0s)
E |----|-------------------|
b |----|-------------------|
g |----|-------------------|
d |----|22--5--5—-59109--22|
a |----|22--5--5—-59109--22|
d |----|22--5--5—-59109--22|
“I’m sorry”

Gtr. 1
E |x--xxx---x--xxxxxxxxxxxxxxxxxxxx-------------------|
b |x--xxx---x--xxxxxxxxxxxxxxxxxxxx-------------------|
g |x--xxx---x--xxxxxxxxxxxxxxxxxxxx-------------------|
d |x--xxx---x--xxxxxxxxxxxxxxxxxxxx-5555555555999999--|
a |x--xxx---x--xxxxxxxxxxxxxxxxxxxx-5555555555999999--|
d |x--xxx---x--xxxxxxxxxxxxxxxxxxxx-5555555555999999--|
5th fret----|  2nd--------|7th----| PM----------------|

Gtr. 2
E |---------------------------------------------------|
b |---------------------------------------------------|
g |---------------------------------------------------|
d |--------------------22-5-5-59109-5555555555999999--|
a |--------------------22-5-5-59109-5555555555999999--|
d |--------------------22-5-5-59109-5555555555999999--|
                       PM-----------------------------|

Both guitars
E |-------------------|
b |-------------------|
g |-------------------|
d |22--5--5—-59109--22|
a |22--5--5—-59109--22|
d |22--5--5—-59109--22|

Gtr. 1
E |x--xxx---x--xxxxxxxxxxxxxxxxxxxx-------------------|
b |x--xxx---x--xxxxxxxxxxxxxxxxxxxx-------------------|
g |x--xxx---x--xxxxxxxxxxxxxxxxxxxx-------------------|
d |x--xxx---x--xxxxxxxxxxxxxxxxxxxx-5555555555559999--|
a |x--xxx---x--xxxxxxxxxxxxxxxxxxxx-5555555555559999--|
d |x--xxx---x--xxxxxxxxxxxxxxxxxxxx-5555555555559999--|
   5th fret-|  2nd--------|7th----| PM----------------|

Gtr. 2
E |---------------------------------------------------|
b |---------------------------------------------------|
g |---------------------------------------------------|
d |--------------------22-5-5-59109-5555555555559999--|
a |--------------------22-5-5-59109-5555555555559999--|
d |--------------------22-5-5-59109-5555555555559999--|
                       PM-----|     |-----------------|

Both (chorus)
E |------------------------------------------------------------------|
b |------------------------------------------------------------------|
g |------------------------------------------------------------------|
d |222555222555-9109--222555222555-9109-9h10-9h10-9h10-9h10-9h10-9h10|
a |222555222555-9109--222555222555-9109------------------------------|
d |222555222555-9109--222555222555-9109------------------------------|

E |-------------------------------------------------------|
b |-------------------------------------------------------|
g |-------------------------------------------------------|
d |222555222555-9109--222555222555-9109--222555222555-9109|
a |222555222555-9109--222555222555-9109--222555222555-9109|
d |222555222555-9109--222555222555-9109--222555222555-9109|

E |----------------------------|
b |----------------------------|
g |----------------------------|
d |9h10-9h10-9h10-9h10-9h10-9-9|
a |-------------------------9-9|
d |-------------------------9-9|

both
E |-------------------|
b |-------------------|
g |-------------------|
d |22--5--5—-59109--22|
a |22--5--5—-59109--22|
d |22--5--5—-59109--22|

Gtr. 1
E |x--xxx---x—xxxxxxxxxxxx-------------------------|
b |x--xxx---x—xxxxxxxxxxxx-------------------------|
g |x--xxx---x—xxxxxxxxxxxx-------------------------|
d |x--xxx---x—xxxxxxxxxxxx-------5555555555999999--|
a |x--xxx---x—xxxxxxxxxxxx-------5555555555999999--|
d |x--xxx---x—xxxxxxxxxxxx-------5555555555999999--|
  5th fret--|  2nd-------|       PM----------------|

Gtr. 2
E |----------------------------------------------|
b |----------------------------------------------|
g |----------------------------------------------|
d |--------------------22-5-5-59-5555555555999999|
a |--------------------22-5-5-59-5555555555999999|
d |--------------------22-5-5-59-5555555555999999|
                       PM------------------------|

both
E |-------------------|
b |-------------------|
g |-------------------|
d |22--5--5—-59109--22|
a |22--5--5—-59109--22|
d |22--5--5—-59109--22|

Gtr. 1
E |x--xxx---x—xxxxxxxxxxxx-----------------------|
b |x--xxx---x—xxxxxxxxxxxx-----------------------|
g |x--xxx---x—xxxxxxxxxxxx-----------------------|
d |x--xxx---x—xxxxxxxxxxxx—-5(let ring)9b--------|
a |x--xxx---x—xxxxxxxxxxxx--5----------9b--------|
d |x--xxx---x—xxxxxxxxxxxx--5----------9b--------|
  5th fret--|

Gtr. 2
E |----------------------------------------------|
b |----------------------------------------------|
g |----------------------------------------------|
d |-------------------------5(let ring)9b--------|
a |-------------------------5----------9b--------|
d |-------------------------5----------9b--------|

Both (chorus)
E |------------------------------------------------------------------|
b |------------------------------------------------------------------|
g |------------------------------------------------------------------|
d |222555222555-9109--222555222555-9109-9h10-9h10-9h10-9h10-9h10-9h10|
a |222555222555-9109--222555222555-9109------------------------------|
d |222555222555-9109--222555222555-9109------------------------------|

E |-------------------------------------------------------|
b |-------------------------------------------------------|
g |-------------------------------------------------------|
d |222555222555-9109--222555222555-9109--222555222555-9109|
a |222555222555-9109--222555222555-9109--222555222555-9109|
d |222555222555-9109--222555222555-9109--222555222555-9109|

E |----------------------------|
b |----------------------------|
g |----------------------------|
d |9h10-9h10-9h10-9h10-9h10-9-9|
a |-------------------------9-9|
d |-------------------------9-9|

Interlude

(im still working on this part, the guitars are deep in the mix)

Both (chorus)
E |------------------------------------------------------------------|
b |------------------------------------------------------------------|
g |------------------------------------------------------------------|
d |222555222555-9109--222555222555-9109-9h10-9h10-9h10-9h10-9h10-9h10|
a |222555222555-9109--222555222555-9109------------------------------|
d |222555222555-9109--222555222555-9109------------------------------|

E |-------------------------------------------------------|
b |-------------------------------------------------------|
g |-------------------------------------------------------|
d |222555222555-9109--222555222555-9109--222555222555-9109|
a |222555222555-9109--222555222555-9109--222555222555-9109|
d |222555222555-9109--222555222555-9109--222555222555-9109|

E |----------------------------|
b |----------------------------|
g |----------------------------|
d |9h10-9h10-9h10-9h10-9h10-9-9|
a |-------------------------9-9|
d |-------------------------9-9|

both
E |-------------------|
b |-------------------|
g |-------------------|
d |22--5--5—-59109--22|
a |22--5--5—-59109--22|
d |22--5--5—-59109--22|

E |xxxxxxxxxxxx|
b |xxxxxxxxxxxx|
g |xxxxxxxxxxxx|
d |xxxxxxxxxxxx|
a |xxxxxxxxxxxx|
d |xxxxxxxxxxxx


Flyleaf
"All Around Me"

played in drop d...send me messages on my myspace if there are any problems

www.myspace.com/forgetyouiwishicould

intro

palm mute  guitar 1
e--------------------------------|
b--------------------------------|
g--------------------------------|
d-44444444---77777777----0000000-|
a-44444444---77777777----0000000-|
D-44444444---77777777----0000000-|


       guitar 2
e------0---------0-----|
B--------2-------------|
G---2----------2-------|
D-4--------------------|
A----------------------|
D----------------------|

           guitar 1
---------------------------------------------------------|
---------------------------------------------------------|
---------------------------------------------------------|
4444----7777----0000----2222----0000----11111111----0000-|
4444----7777----0000----2222----0000----11111111----0000-|
4444----7777----0000----2222----0000----11111111----0000-|


e------0--------------------------0-----------|------------|
B--------2---------2h3p2----------------------|-------2----|
G---2---------2---------------2-2-----1h2p1---|-----1----2-|
D-4---------4----2--------4-----------------4-|-4----------|
A---------------------------0-------4---------|------------|
D---------------------------------------------|------------|

Verse 1

--------------------------------      -----|
--------------------------------      -----|
--------------------------------      -----|
44444444----77777777----00000000      1111-|
44444444----77777777----00000000      1111-|
44444444----77777777----00000000 x2   1111-|

                                          elevens


"im Alive"

----------------|
----------------|
----------------|    x2
6----7----0-----|
6----7----0-----|
6----7----0-----|


  guitar 2

0--4--2--4--0--4--2--4-|
-----------------------|
-----------------------|
-----------------------|
-----------------------|
-----------------------|


 chorus
                                       elevens
-------------------------------------------------|
-------------------------------------------------|
-------------------------------------------------|
4444----7777----0000----2222----0000----11111111-|
4444----7777----0000----2222----0000----11111111-|
4444----7777----0000----2222----0000----11111111-|

-----------------------------------------|
-----------------------------------------|
-----------------------------------------|
4444----0000----2222----11111111----0000-|
4444----0000----2222----11111111----0000-|
4444----0000----2222----11111111----0000-|


Artist: Flyleaf
Song: Red Sam
DROP D TUNING

Intro:
e|22--------------|
B|---22-33---3~33-|
G|---------22-----|
D|----------------|
A|----------------|
D|----------------|

Verse:
e|----------------|
B|7-7-78-10-7-7~~-|
G|----------------|
D|----------------|
A|----------------|
D|----------------|

Pre-Chorus:
e|------------------|
B|------------------|
G|------------------|
D|99-55-99-55-9-99--|
A|99-55-99-55-9-99--|
D|99-55-99-55-9-99--|

Chorus:
e|------------------------|
B|------------------------|
G|------------------------|
D|9-9-X44-5-5-555-5-5-555-|
A|9-9-X44-5-5-555-5-5-555-|
D|9-9-X44-5-5-555-5-5-555-|

Bridge:
e|-----------------------------------------|
B|----------------10--10-10----------------|
G|--------11-9--------------12-1212p10-10--|
D|9-11-12------12--------------------------|
A|-----------------------------------------|
D|-----------------------------------------|

-------------------------------------------------------------------------------
			     Breathe Today - Flyleaf
-------------------------------------------------------------------------------
Tabbed by: Maverickxl7
Email: Joemuso@optonline.net

Tuning:DADGBE

This is my first tab but I think I did pretty well in accuracy in this song.
I really love this song along with all of the songs on the album and I plan
to make tabs for a lot of other Flyleaf songs.  I will be making other
Flyleaf tabs shortly.  Also, Please correct me if anyone finds any mistakes.
I would put in the number of times you play each section but I am limited in
time at the moment, so just listen to the song to figure it out. Thanks, enjoy!


Intro (Verse)
e|--------------------------------------------------------------------------|
B|--------------------------------------------------------------------------|
G|--------------------------------------------------------------------------|
D|--------------------------------------------------------------------------|
A|-99-99-99-5/7\5\4/5\4-----99-99-99-5/7\5\4/5\4----99-99-99-5/7\5\4/5\4----|
D|-99-99-99-5/7\5\4/5\4-----99-99-99-5/7\5\4/5\4----99-99-99-5/7\5\4/5\4----|
                           "You can only move..."
e|--------------------------------------------------------------------------|
B|--------------------------------------------------------------------------|
G|--------------------------------------------------------------------------|
D|--------------------------------------------------------------------------|
A|-99-99-99-5/7\5\4/5\4-----------------------------------------------------|
D|-99-99-99-5/7\5\4/5\4-----------------------------------------------------|
(99 part has distortion and the first 5/7 part)

Pre-Chorus				   Pre-Chorus #2
e|---------------------------------------|-----------------------------------|
B|---------------------------------------|-----------------------------------|
G|---------------------------------------|-----------------------------------|
D|-55555555\44444444/55555555\44444444---|-55555555\44444444\2222/5555/44444-|
A|-55555555\44444444/55555555\44444444---|-55555555\44444444\2222/5555/44444-|
D|-55555555\44444444/55555555\44444444---|-55555555\44444444\2222/5555/44444-|
"You can breathe today"

Chorus
e|--------------------------------------------------------------------------|
B|--------------------------------------------------------------------------|
G|--------------------------------------------------------------------------|
D|-9999-5555-7777-4-2--9999-5555-7777-4-2-----------------------------------|
A|-9999-5555-7777-4-2--9999-5555-7777-4-2-----------------------------------|
D|-9999-5555-7777-4-2--9999-5555-7777-4-2-----------------------------------|
"So many lies swirling...  The empty shape in you..."

Pre-Bridge
e|--------------------------------------------------------------------------|
B|--------------------------------------------------------------------------|
G|--------------------------------------------------------------------------|
D|----------------------------------------9--5--7--4-2----------------------|
A|----------------------------------------9--5--7--4-2----------------------|
D|-2222/5555\444444444-2222/5555\44444----9--5--7--4-2----------------------|
"BREATHE!!!" (I have yet to figure out the sorta mini solo for this part)

Bridge
e|--------------------------------------------------------------------------|
B|--------------------------------------------------------------------------|
G|--------------------------------------------------------------------------|
D|--------------------------------------------------------------------------|
A|-22--22-55-55\44--44-44-44--22--22-55-55\44--44-44------------------------|
D|-22--22-55-55\44--44-44-44--22--22-55-55\44--44-44------------------------|
"Big enough to fill the void that's inside of you..."

Outro
e|--------------------------------------------------------------------------|
B|--------------------------------------------------------------------------|
G|--------------------------------------------------------------------------|
D|-9999-5555-7777-4---------------------------------------------------------|
A|-9999-5555-7777-4---------------------------------------------------------|
D|-9999-5555-7777-4---------------------------------------------------------|
(also played at the end of the chorus before the Pre-Bridge)

| /  slide up
| \  slide down
| h  hammer-on
| p  pull-off
| ~  vibrato
| +  harmonic
| x  Mute note

Flyleaf - So I Thought

Tuning: D,A,D,g,b,e

-----
Verse
-----

clean

guitar1

e|-------17--14-----------17-------------|
b|---15---------15----15-----14h15p14-12-|
g|---------------------------------------|
D|---------------------------------------|
A|---------------------------------------|
D|---------------------------------------|

guitar2

e|---------------------------------------|
b|---------------------------------------|
g|---------------------------------------|
D|-0----------------0--------------------|
A|---------------------------------------|
D|---------------------------------------|

guitar1

e|-----------------------------------------------------------------|
b|-----------------------------------------------------------------|
g|------9-7----7--9-7---11----11--11--11-11-12----12--11h12-12--14-|
D|---7---------------------12------------------12-----12-----------|
A|-----------------------------------------------------------------|
D|-----------------------------------------------------------------|

guitar2

e|-----------------------------------------------------------------|
b|-----------------------------------------------------------------|
g|-----------------------------------------------------------------|
D|-----------------------------------------------------------------|
A|-2----------0----------------------------------------------------|
D|--------------------3--------------------------------------------|

Each time guitar1 is played a little bit different, but i couldn´t figure it out.


------
Chours
------

distorted
play2x

e|-----------------------------|
b|-----------------------------|
g|-----------------------------|
D|-0-0--0-0--0-0-9-9--9-5--5-5-|
A|-0-0--0-0--0-0-9-9--9-5--5-5-|
D|-0-0--0-0--0-0-9-9--9-5--5-5-|

then

e|---------------------------------------------------------|
b|---------------------------------------------------------|
g|---------------------------------------------------------|
D|-0-0--0-0--0-0-9-9--9-5--5-5-2-2--2-2--2-2-5-5--5-5--5-5-|
A|-0-0--0-0--0-0-9-9--9-5--5-5-2-2--2-2--2-2-5-5--5-5--5-5-|
D|-0-0--0-0--0-0-9-9--9-5--5-5-2-2--2-2--2-2-5-5--5-5--5-5-|

e|---
b|---
g|---
D|-9-
A|-9- let ring
D|-9-


------
bridge
------

clean
something like this

e|---------------------------------------------------------------|
b|-------------------------------------------10-8----------------|
g|-11h12-11h12-11h12-11h12-11h12-11h12-11h12------11-11h12-11h12-|
D|---------------------------------------------------------------|
A|---------------------------------------------------------------|
D|---------------------------------------------------------------|


----
Solo
----

while guitar1 plays chours guitar2 plays

e|---------------------------17--------------------------------------------|
b|-14b-----14h15p14h15-15-15--------14h15p14h15-15-15-15-17-17-17-17-17-17-|
g|-------------------------------------------------------------------------|
D|-------------------------------------------------------------------------|
A|-------------------------------------------------------------------------|
D|-------------------------------------------------------------------------|

e|-------------------17-----22-22-22-22-22-22-22-22----------------------|
b|-14h15p14h15-15-15--------------------------------22-22-22-22-20-20-20-|
g|-----------------------------------------------------------------------|
D|-----------------------------------------------------------------------|
A|-----------------------------------------------------------------------|
D|-----------------------------------------------------------------------|

e|--------------------17--------------------------------------------|
b|--14h15p14h15-15-15--------14h15p14h15-15-15-15-17-17-17-17-17-17-|
g|------------------------------------------------------------------|
D|------------------------------------------------------------------|
A|------------------------------------------------------------------|
D|------------------------------------------------------------------|

e|-----------------------------------|
b|-----------------------------------|
g|-19--------14--11----11----12--14--|
D|----16--16--------12----12---------|
A|-----------------------------------|
D|-----------------------------------|

then
distorted

e|---
b|---
g|---
D|-0-
A|-0- let ring
D|-0-

play 2x

e|----------------------------------------------------------|
b|----------------------------------------------------------|
g|----------------------------------------------------------|
D|-9-9--9-9--9-9-7-7--7-7--7-7-5-5--5-5--5-5--5-5--5-5--5-5-|
A|-9-9--9-9--9-9-7-7--7-7--7-7-5-5--5-5--5-5--5-5--5-5--5-5-|
D|-9-9--9-9--9-9-7-7--7-7--7-7-5-5--5-5--5-5--5-5--5-5--5-5-|

play 2x

e|-----------------------------------------------------------------|
b|-----------------------------------------------------------------|
g|-----------------------------------------------------------------|
D|-9-9-9-9-9-9-9-9-7-7-7-7-7-7-7-7-5-5-5-5-5-5-5-5-5-5-5-5-5-5-5-5-|
A|-9-9-9-9-9-9-9-9-7-7-7-7-7-7-7-7-5-5-5-5-5-5-5-5-5-5-5-5-5-5-5-5-|
D|-9-9-9-9-9-9-9-9-7-7-7-7-7-7-7-7-5-5-5-5-5-5-5-5-5-5-5-5-5-5-5-5-|

end on

e|---
b|---
g|---
D|-0-
A|-0- let ring
D|-0-


Much Like Falling - Flyleaf

[bass plays intro]

Verse:
|-------------------------|   |---------------------------------------------|
|-------------------------|   |---------------------------------------------|
|--------4-0--------------|   |--------4-0------------------------------4-0-|
|-----0------2-2-x--0-0-x-|x2 |-----0------2-2-x-4-4h5r4-0-0-x-------0------|
|-0-2--2-----2-2-x--0-0-x-|   |-0-2--2-----2-2-x---------0-0-x---0-2---2----|
|------------2-2-x--0-0-x-|   |------------2-2-x---------0-0-x--------------|
[when I said good morning...]

Chorus Intro: x1         Chorus: x2
|-------------------|   |-4---9------------10----------------------------------|
|-------------------|   |-7---12--------------10-10-10--10-10-10--10-10-10-10b-|
|-------------------|   |-6---11---------------------------------9--9--9-------|
|-2-x-2-2-2-2-2-2-0-|   |-4-0-9--0---0-----------------------------------------|
|-2-x-2-2-2-2-2-2-0-|   |-4-0-9--0---0-x5--------------------------------------|
|-2-x-2-2-2-2-2-2-0-|   |-4-0-9--0---0-----------------------------------------|
     ......              [it feels so much like falling...]
[so I keep waking up]

|-5---------------------4-----2-----------------------------------|
|-8---------------------7-----5--------------------7--------7-----|
|-7---------------------6-----4-------------------7--7-----7--7---|
|-5-x8---5-6-5---7777---4--0--2-x?--5h6--7-77---7-------7---------|
|-5------------7--------4--0--2--------7--------------------------|
|-5---------------------4--0--2-----------------------------------|
 [I don’t wanna be here...]


|-9-----10----7----5----12----|  |-5------|  |-9-------2--2-2-2222-|
|-12----13----10---8----15----|  |-8------|  |-12------5--5-5-5555-|
|-11----12----9----7----14----|x2|-7------|  |-11------4--4-4-4444-|x2
|-9--x3-10-x3-7-x3-5-x3-12-x3-|  |-5--x16-|  |-9---0---2--2-2-2222-|
|-9-----10----7----5----12----|  |-5------|  |-9---0---2--2-2-2222-|
|-9-----10----7----5----12----|  |-5------|  |-9---0---2--2-2-2222-|
 ...light muting.............                                ....
[there’s still so much to know...]           [you grip my wrists, I let go]


Chorus: x4

End:
|-9---------2~~~-|
|-12--------5~~~-|
|-11--------4~~~-|
|-9~---0~---2~~~-|
|-9~---0~---2~~~-|
|-9~---0~---2~~~-|

intro:
e|--------------------------------------------------------------------------|
B|--------------------------------------------------------------------------|
G|-----8/6---------------------8/6------------------------------------------|
D|-0-0-8/6-3-5-8-7-7-7-3---0-0-8/6-3-5-8-7-7-7-3----------------------------|
A|-0-0-6/4-3-5-8-7-7-7-3---0-0-6/4-3-5-8-7-7-7-3----------------------------|
D|-0-0-----3-5-8-7-7-7-3---0-0-----3-5-8-7-7-7-3----------------------------|
          part a         |        part a

verse 1 (2 times)
e|--------------------------------------------------------------------------|
B|--------------------------------------------------------------------------|
G---------------10-9-8-7-7-7-7----------------10-9-8-7-7-7-7----------------|
D|-7-7-9-7-9-7--10-9-8-7-7-7-7---7-7-9-7-9-7--10-9-8-7-7-7-7----------------|
A|-7-7-9-7-9-7--8--7-6-5-5-5-5---7-7-9-7-9-7--8--7-6-5-5-5-5----------------|
D|-7-7-9-7-9-7-------------------7-7-9-7-9-7--------------------------------|


Chorus:
(Intro but 'part a' play 3 times) and then :

e|--------------------------------------------------------------------------|
B|--------------------------------------------------------------------------|
G|-7-7-7-7-7-7-7-6-6-6-6-6-6-6-6--------------------------------------------|
D|-7-7-7-7-7-7-7-6-6-6-6-6-6-6-6--------------------------------------------|
A|-7-7-7-7-7-7-7-6-6-6-6-6-6-6-6--------------------------------------------|

+ 2 times 'part a'

Verse 2

Chorus

(Now it's the softest part of Tina)

& OUTRO (play 6 times)
intro:
e|---------------------------------------------------------------------------|
B|---------------------------------------------------------------------------|
G|---------------------------------------------------------------------------|
D|-0--5-3-2-1----------------------------------------------------------------|
A|-0--5-3-2-1----------------------------------------------------------------|
D|-0--5-3-2-1----------------------------------------------------------------|


Flyleaf
Justice and Mercy
Much Like Falling-EP

I know they play in drop D but this particular song happens to be in
Drop Db
(C#-G#-C#-F#-A#-D#)

Updated 3/11/08

Intro Bass
(0:02)Guitar 1/Rhythm Figure A
e|----------------------|
B|------3-----3------3--|
G|--0-2---0-2----0-2----|
D|----------------------|X2
A|----------------------|
E|----------------------|

(0:09)Both Guitars(Palm Muted)Verse 1/Rythm Figure B
e|---------------------------------------------------|
B|---------------------------------------------------|
G|---------------------------------------------------|
D|-0--3-2-0-1-1-1-1-----12--10--7--8--10-12-12-12----|X2
A|-0--3-2-0-1-1-1-1-----12--10--7--8--10-12-12-12----|
E|-0--3-2-0-1-1-1-1-----12--10--7--8--10-12-12-12----|

Pre-Chorus  Guitar 1

e|--10-10-10-10--13-13-13-13--15-15-15-15--17-17-17-17---|
B|--10-10-10-10--13-13-13-13--15-15-15-15--15-15-15-15---|
G|-------------------------------------------------------|
D|-------------------------------------------------------|
A|-------------------------------------------------------|
E|-------------------------------------------------------|

Pre-Chorus Guitar 2(palm muted)
e|---------------------------------------------------------------|
B|---------------------------------------------------------------|
G|---------------------------------------------------------------|
D|--0--3-2-0--1-1-1-1---0--3-2-0--1-1-1-1------------------------|
A|--0--3-2-0--1-1-1-1---0--3-2-0--1-1-1-1------------------------|X2
E|--0--3-2-0--1-1-1-1---0--3-2-0--1-1-1-1------------------------|

(0:25)Pre-Chorus 2/Guitar 1
e|--5-5-5-5---8-8-8-8-8-8--10-10-10-10-10-10-10-10-----|
B|-----------------------------------------------------|
G|-----------------------------------------------------|
D|-----------------------------------------------------|
A|-----------------------------------------------------|
E|-----------------------------------------------------|

Pre-Chorus 2/Guitar 2
e|-----------------------------------------------------|
B|-----------------------------------------------------|
G|------3-3--5-5-5-5--------3-3--5-5-5-5-5-5-5-5-5-5-5-|
D|-1-1--x-x--x-x-x-x---1-1--x-x--x-x-x-x-x-x-x-x-x-x-x-|
A|-1-1--1-1--3-3-3-3---1-1--1-1--3-3-3-3-3-3-3-3-3-3-3-|
E|-1-1-----------------1-1-----------------------------|

Chorus: Guitar 1 plays basically same thing as Pre-chorus 1 And 2
                                       im sure you can figure it out
Chorus/Guitar 2
e|-----------------|
B|---------------3-|
G|---------------2-|
D|-0-0-0--5-3-0----|X6
A|-0-0-0--5-3-0----|
E|-0-0-0--5-3-0----|

Chorus/Guitar 2 Continued
e|---------------------|
B|---------------------|
G|------3-3-5-5-5-5----|
D|-1-1--x-x-x-x-x-x----|
A|-1-1--1-1-3-3-3-3----|X2
E|-1-1-----------------|

Both Guitars End Chorus With
e|-----------------|
B|-----------------|
G|-----------------|
D|-0~~~~~~~~~~-----|
A|-0~~~~~~~~~~-----|
E|-0~~~~~~~~~~-----|


Verse 2/Guitar 3 plays Rythm Figure A

Verse 2/Guitar 1 and 2
e|-------------------------------|
B|-------------------------------|
G|-------------------------------|
D|-0--3-2-0-1-1-1-1-1-1-1-1------|
A|-0--3-2-0-1-1-1-1-1-1-1-1------|X2
E|-0--3-2-0-1-1-1-1-1-1-1-1------|
      . . . . . . . . . . .

(1:00)Verse 2 continued/Both Guitars/Play Rythm Figure B here

Play Pre-Chorus 1 and 2 Again
Then play Chorus Again

Interlude(With the life on the line,Fire!!)
e|-----------------------------|
B|-----------------------------|
G|----------5-5-5-5------------|
D|-3-3-3-3--5-5-5-5--0-0-0-0---|
A|-3-3-3-3--3-3-3-3--0-0-0-0---|X3
E|-3-3-3-3-----------0-0-0-0---|

(2:02)
e|------------|
B|------------|
G|------------|
D|-3~~~~~~~~--|
A|-3~~~~~~~~--|
E|-3~~~~~~~~--|

Play the chorus again and Thats it!!!!!!!!
comments
print report bad tab
4 comments total. Showing first comments.
+1 reply
soccerxguitarxc wrote on April 4 2008, 07:16 pm

yay! all the good tabs in one place :]

0 reply
wrseguitarplayr wrote on July 26 2008, 06:16 am

this is... awefully much=P but good

+1 reply
MetalheadforJC wrote on July 16 2009, 07:20 pm

This tab looks better than all of the other Flyleaf tabs and I haven't even played it yet.

I want to post or [tab]
guest
You may want to rate the tab now too:
select rating
Please do not post tabs as comments. Select "correction" instead!