Oops, an error
Loading. Please wait.

Aint It The Life Tab

ver1
ver1

Whole song

Interactive

More versions @911Tabs.com
26,948 views 54 this week
2 commentsread comments
1 2 3 4 5
excellent!
x 6
Autoscroll
+/-
esc
set tempo
stop
Contributor
Hey! There's an official Ultimate Guitar app which is ideal
for learning songs when you're away from computer. Get the app
WARNING: You are trying to view
                                    content from Ultimate-Guitar.com
                                    in an unauthorized application,
                                    which is prohibited.

                                    Please use an official Ultimate
                                    Guitar Tabs application for iPhone,
                                    iPad or Android to access legitimate
                                    chords, guitar, bass, and drum tabs
                                    from Ultimate-Guitar.com database.

                                    Type "ultimate guitar tabs" in Apple
                                    App Store's or Android Market's
                                    search to find the application.
Intro
  Gtr. 1
e|-------------------------|-------------------------|
B|----------------8-----8--|-10-10-10-10-8-----------|
G|------------5/9---9-7----|---------------7---------|
D|-------------------------|-------------------------|
A|-------------------------|-------------------------|
E|-------------------------|-------------------------|
 |
 |Gtr. 2
e|-0-0---------------------|--------3-3-3-3-3-3-3----|
B|-1---1-------------------|--------3-3-3-3-3-3-3----|
G|-0-----0-----------------|--------0-0-0-0-0-0-0----|
D|-2-------2---------------|--------0-0-0-0-0-0-0----|
A|-3---------3-------------|--------2-2-2-2-2-2-2----|
E|-------------------------|-0-0--2-3-3-3-3-3-3-3----|
    

Verse
  Gtr. 1
e|----------------------------------------------------|
B|----------------------------------------------------|
G|----------------------------------------------------|
D|----------------------------------------------------|
A|----------------------------------------------------|
E|----------------------------------------------------|
 |
 |Gtr. 2
e|-------3-----3-----3-----3------0-----0-----0-----0-|
B|---------1-----1-----1------------1-----1-----1-----|
G|-----0-----0-----0-----0------0-----0-----0-----0---|
D|---2------------------------2-----------------------|
A|-3------------------------0-------------------------|
E|----------------------------------------------------|

  Gtr. 1
e|---------------------3-----3-------0--------------------|
B|-----------------5-------5-------8---8---10----10----10-|
G|---------------5---5---5-----5/9---9--10----10----10----|
D|--------------------------------------------------------|
A|--------------------------------------------------------|
E|--------------------------------------------------------|
 |
 |Gtr. 2
e|----------------0-0-0--0-0--0-0-0-0-0--1-1-1--1-1-1-1-1-|
B|----------------1-1-1--1-1--1-1-1-1-1--1-1-1--1-1-1-1-1-|
G|-5-5-5-5-5-5/7--0-0-0--0-0--0-0-0-0-0--3-2-2--2-2-2-2-2-|
D|-6-6-6-6-6-6/8--2-2-2--2-2--0-0-0-0-0--x-3-3--3-3-3-3-3-|
A|-6-6-6-6-6-6/8--3-3-3--3-3--2-2-2-2-2--3-3-3--3-3-3-3-3-|
E|-4-4-4-4-4-4/8-------------------------1-1-1--1-1-1-1-1-|

  Gtr. 1
e|-8-----7-----8-----7------8-----7-----8-----8-------|
B|---8-----8-----8-----8------8-----8-----8-----------|
G|-----9-----9-----9-----9------9-----9-----9---------|
D|----------------------------------------------------|
A|----------------------------------------------------|
E|----------------------------------------------------|
 |
 |Gtr. 2
e|-------3-----3-----3-----3------0-----0-----0-----0-|
B|---------1-----1-----1------------1-----1-----1-----|
G|-----0-----0-----0-----0------0-----0-----0-----0---|
D|---2------------------------2-----------------------|
A|-3------------------------0-------------------------|
E|----------------------------------------------------|

  Gtr. 1
e|---------------------3-----3-------0--------------------|
B|-----------------5-------5-------8---8---10----10----10-|
G|---------------5---5---5-----5/9---9--10----10----10----|
D|--------------------------------------------------------|
A|--------------------------------------------------------|
E|--------------------------------------------------------|
 |
 |Gtr. 2
e|----------------0-0-0--0-0--0-0-0-0-0--1-1-1--1-1-1-1-1-|
B|----------------1-1-1--1-1--1-1-1-1-1--1-1-1--1-1-1-1-1-|
G|-5-5-5-5-5-5/7--0-0-0--0-0--0-0-0-0-0--3-2-2--2-2-2-2-2-|
D|-6-6-6-6-6-6/8--2-2-2--2-2--0-0-0-0-0--x-3-3--3-3-3-3-3-|
A|-6-6-6-6-6-6/8--3-3-3--3-3--2-2-2-2-2--3-3-3--3-3-3-3-3-|
E|-4-4-4-4-4-4/8-------------------------1-1-1--1-1-1-1-1-|


Pre-Chorus
  Gtr. 1 & 2
e|-3-3-3-3-3-3-3-3-3-3-3-3-3-3-3-3-0-0-0-0-0-0-0-0-0-0-0-0-0-0-0-0-|
B|-3-3-3-3-3-3-3-3-3-3-3-3-3-3-3-3-1-1-1-1-1-1-1-1-1-1-1-1-1-1-1-1-|
G|-0-0-0-0-0-0-0-0-0-0-0-0-0-0-0-0-0-0-0-0-0-0-0-0-0-0-0-0-0-0-0-0-|
D|-0-0-0-0-0-0-0-0-0-0-0-0-0-0-0-0-2-2-2-2-0-0-0-0-2-2-2-2-2-2-2-2-|
A|-2-2-2-2-2-2-2-2-2-2-2-2-2-2-2-2-3-3-3-3-2-2-2-2-0-0-0-0-0-0-0-0-|
E|-3-3-3-3-3-3-3-3-3-3-3-3-3-3-3-3---------------------------------|

  Gtr. 1
e|---------------------------------|
B|----------------3-4-3------------|
G|--------------5--------5---------|
D|---------------------------------|
A|---------------------------------|
E|---------------------------------|
 |
 |Gtr. 2
e|-1-----------------------1-1-1-1-|
B|-1-----------------------1-1-1-1-|
G|-1-----------------------1-1-1-1-|
D|-3-----------------------3-3-3-3-|
A|-3-----------------------3-3-3-3-|
E|-1-----------------------1-1-1-1-|


Verse 2
  Gtr. 1
e|-8-----7-----8-----7------8-----7-----8-----8-------|
B|---8-----8-----8-----8------8-----8-----8-----------|
G|-----9-----9-----9-----9------9-----9-----9---------|
D|----------------------------------------------------|
A|----------------------------------------------------|
E|----------------------------------------------------|
 |
 |Gtr. 2
e|-------3-----3-----3-----3------0-----0-----0-----0-|
B|---------1-----1-----1------------1-----1-----1-----|
G|-----0-----0-----0-----0------0-----0-----0-----0---|
D|---2------------------------2-----------------------|
A|-3------------------------0-------------------------|
E|----------------------------------------------------|

  Gtr. 1
e|---------------------3-----3-------0--------------------|
B|-----------------5-------5-------8---8---10----10----10-|
G|---------------5---5---5-----5/9---9--10----10----10----|
D|--------------------------------------------------------|
A|--------------------------------------------------------|
E|--------------------------------------------------------|
 |
 |Gtr. 2
e|----------------0-0-0--0-0--0-0-0-0-0--1-1-1--1-1-1-1-1-|
B|----------------1-1-1--1-1--1-1-1-1-1--1-1-1--1-1-1-1-1-|
G|-5-5-5-5-5-5/7--0-0-0--0-0--0-0-0-0-0--3-2-2--2-2-2-2-2-|
D|-6-6-6-6-6-6/8--2-2-2--2-2--0-0-0-0-0--x-3-3--3-3-3-3-3-|
A|-6-6-6-6-6-6/8--3-3-3--3-3--2-2-2-2-2--3-3-3--3-3-3-3-3-|
E|-4-4-4-4-4-4/8-------------------------1-1-1--1-1-1-1-1-|

  Gtr. 1
e|-8-----7-----8-----7------8-----7-----8-----8-------|
B|---8-----8-----8-----8------8-----8-----8-----------|
G|-----9-----9-----9-----9------9-----9-----9---------|
D|----------------------------------------------------|
A|----------------------------------------------------|
E|----------------------------------------------------|
 |
 |Gtr. 2
e|-------3-----3-----3-----3------0-----0-----0-----0-|
B|---------1-----1-----1------------1-----1-----1-----|
G|-----0-----0-----0-----0------0-----0-----0-----0---|
D|---2------------------------2-----------------------|
A|-3------------------------0-------------------------|
E|----------------------------------------------------|

  Gtr. 1
e|---------------------3-----3-------0--------------------|
B|-----------------5-------5-------8---8---10----10----10-|
G|---------------5---5---5-----5/9---9--10----10----10----|
D|--------------------------------------------------------|
A|--------------------------------------------------------|
E|--------------------------------------------------------|
 |
 |Gtr. 2
e|----------------0-0-0--0-0--0-0-0-0-0----1-1--1-1-1-1-1-|
B|----------------1-1-1--1-1--1-1-1-1-1----1-1--1-1-1-1-1-|
G|-5-5-5-5-5-5/7--0-0-0--0-0--0-0-0-0-0----2-2--2-2-2-2-2-|
D|-6-6-6-6-6-6/8--2-2-2--2-2--0-0-0-0-0--3-3-3--3-3-3-3-3-|
A|-6-6-6-6-6-6/8--3-3-3--3-3--2-2-2-2-2--3-3-3--3-3-3-3-3-|
E|-4-4-4-4-4-4/8-------------------------1-1-1--1-1-1-1-1-|


Pre-Chorus
  Gtr. 1 & 2
e|-3-3-3-3-3-3-3-3-3-3-3-3-3-3-3-3-0-0-0-0-0-0-0-0-0-0-0-0-0-0-0-0-|
B|-3-3-3-3-3-3-3-3-3-3-3-3-3-3-3-3-1-1-1-1-1-1-1-1-1-1-1-1-1-1-1-1-|
G|-0-0-0-0-0-0-0-0-0-0-0-0-0-0-0-0-0-0-0-0-0-0-0-0-0-0-0-0-0-0-0-0-|
D|-0-0-0-0-0-0-0-0-0-0-0-0-0-0-0-0-2-2-2-2-0-0-0-0-2-2-2-2-2-2-2-2-|
A|-2-2-2-2-2-2-2-2-2-2-2-2-2-2-2-2-3-3-3-3-2-2-2-2-0-0-0-0-0-0-0-0-|
E|-3-3-3-3-3-3-3-3-3-3-3-3-3-3-3-3---------------------------------|

  Gtr. 1
e|---------------------------------|
B|----------------3-4-3------------|
G|--------------5--------5---------|
D|---------------------------------|
A|---------------------------------|
E|---------------------------------|
 |
 |Gtr. 2
e|-1-----------------------1-1-1-1-|
B|-1-----------------------1-1-1-1-|
G|-1-----------------------1-1-1-1-|
D|-3-----------------------3-3-3-3-|
A|-3-----------------------3-3-3-3-|
E|-1-----------------------1-1-1-1-|


Chorus
  Gtr. 1
e|-------3---------0-----------3---------0-------------------0---0-------0-----------|
B|---5-----5---1-----1-----5-----5---1-----1-------1-3-1---3---3-------3---3-------1-|
G|-5---5-----2---2-----2-5---5-----2---2-----2---1-------5-----------0---------0-2---|
D|---------------------------------------------3-------------------2---------3-------|
A|-----------------------------------------------------------------------------------|
E|-----------------------------------------------------------------------------------|
 |
 |Gtr. 2
e|-0---------0-----------0---------0-----------1---------0---------0---------1-------|
B|-1---------1-----------1---------1-----------1---------1---------1---------1-------|
G|-0---------0-----------0---------0-----------1---------0---------0---------2-------|
D|-2---------2-----------2---------2-----------3---------2---------0---------3-------|
A|-3---------0-----------3---------3-----------3---------3---------2---------3-------|
E|---------------------------------------------1-----------------------------1-------|

  Gtr. 1
e|-------3---------0-----------3---------0-------------------0---0-------0-----------|
B|---5-----5---1-----1-----5-----5---1-----1-------1-3-1---3---3-------3---3-------1-|
G|-5---5-----2---2-----2-5---5-----2---2-----2---1-------5-----------0---------0-2---|
D|---------------------------------------------3-------------------2---------3-------|
A|-----------------------------------------------------------------------------------|
E|-----------------------------------------------------------------------------------|
 |
 |Gtr. 2
e|-0---------0-----------0---------0-----------1---------0---------0---------1-------|
B|-1---------1-----------1---------1-----------1---------1---------1---------1-------|
G|-0---------0-----------0---------0-----------1---------0---------0---------2-------|
D|-2---------2-----------2---------2-----------3---------2---------0---------3-------|
A|-3---------0-----------3---------3-----------3---------3---------2---------3-------|
E|---------------------------------------------1-----------------------------1-------|


Interlude
  Gtr. 1
e|-------------------------|-------------------------|
B|----------------8-----8--|-10-10-10-10-8-----------|
G|------------5/9---9-7----|---------------7---------|
D|-------------------------|-------------------------|
A|-------------------------|-------------------------|
E|-------------------------|-------------------------|
 |
 |Gtr. 2
e|-0-0---------------------|--------3-3-3-3-3-3-3----|
B|-1---1-------------------|--------3-3-3-3-3-3-3----|
G|-0-----0-----------------|--------0-0-0-0-0-0-0----|
D|-2-------2---------------|--------0-0-0-0-0-0-0----|
A|-3---------3-------------|--------2-2-2-2-2-2-2----|
E|-------------------------|-0-0--2-3-3-3-3-3-3-3----|


Solo
  Gtr. 1
e|-------12-----------------12----------------------------------------------|
B|-12h13----13-12-13--12h13----13-12-13--8/10/8----------8/10/8-------------|
G|----------------------------------------------7-7/9-9---------7-7/9-9/7/5-|
D|--------------------------------------------------------------------------|
A|--------------------------------------------------------------------------|
E|--------------------------------------------------------------------------|
 |
 |Gtr. 2
e|-0-0-0-0-0-0-0-0-0-0-0-0-0-0-0-0--0-0-0-0-0-0-0-0-0-0-0-0-0-0-0-0---------|
B|-1-1-1-1-1-1-1-1-1-1-1-1-1-1-1-1--1-1-1-1-1-1-1-1-1-1-1-1-1-1-1-1---------|
G|-0-0-0-0-0-0-0-0-0-0-0-0-0-0-0-0--0-0-0-0-0-0-0-0-0-0-0-0-0-0-0-0---------|
D|-2-2-2-2-2-2-2-2-2-2-2-2-2-2-2-2--2-2-2-2-2-2-2-2-2-2-2-2-2-2-2-2---------|
A|-3-3-3-3-3-3-3-3-3-3-3-3-3-3-3-3--0-0-0-0-0-0-0-0-0-0-0-0-0-0-0-0---------|
E|--------------------------------------------------------------------------|

  Gtr. 1
e|-----------------------8---8---8-7-7-7-------------------|
B|---------------------8---8-------------10-8-10-----------|
G|-5-5-5-5-5-7-----7/9---------------------------9b11b9b11-|
D|-7-7-7-7-7-9---------------------------------------------|
A|---------------------------------------------------------|
E|---------------------------------------------------------|
 |
 |Gtr. 2
e|----------------0-0-0--0-0--0-0-0-0-0--1-1-1--1-1-1-1-1--|
B|----------------1-1-1--1-1--1-1-1-1-1--1-1-1--1-1-1-1-1--|
G|-5-5-5-5-5-5/7--0-0-0--0-0--0-0-0-0-0--3-2-2--2-2-2-2-2--|
D|-6-6-6-6-6-6/8--2-2-2--2-2--0-0-0-0-0--x-3-3--3-3-3-3-3--|
A|-6-6-6-6-6-6/8--3-3-3--3-3--2-2-2-2-2--3-3-3--3-3-3-3-3--|
E|-4-4-4-4-4-4/6-------------------------1-1-1--1-1-1-1-1--|

  Gtr. 1
e|--------------------------------------------------------|
B|-8888-6-5--8888-6-5---55555-3-1--555553--1--------------|
G|-9999-7-5--9999-7-5---55555-4-2--555554--2--1-1-1-3-1-0-|
D|--------------------------------------------------------|
A|--------------------------------------------------------|
E|--------------------------------------------------------|
 |
 |Gtr. 2
e|-------3---------3-----------0---------0---------------|
B|---5-----5---5-----5-----1-----1---1-----1-------1-3-1-|
G|-5---5-----5---5-----5-2---2-----2---2-----2---1-------|
D|---------------------------------------------3---------|
A|-------------------------------------------------------|
E|-------------------------------------------------------|

  Gtr. 1
e|-------1-0-----------------------------------|
B|-1-3-1-----3-1---------------1---------------|
G|-----------------4-2-0---0h2-----------------|
D|-----------------------2---------------------|
A|---------------------------------------------|
E|---------------------------------------------|
 |
 |Gtr. 2
e|--------3-----3---------0--------------------|
B|----5-------5---------8---8---10----10----10-|
G|--5---5---5-------5/9---9--10----10----10----|
D|---------------------------------------------|
A|---------------------------------------------|
E|---------------------------------------------|

                  
Pre-Chorus
  Gtr. 1 & 2
e|-3-3-3-3-3-3-3-3-3-3-3-3-3-3-3-3-0-0-0-0-0-0-0-0-0-0-0-0-0-0-0-0-|
B|-3-3-3-3-3-3-3-3-3-3-3-3-3-3-3-3-1-1-1-1-1-1-1-1-1-1-1-1-1-1-1-1-|
G|-0-0-0-0-0-0-0-0-0-0-0-0-0-0-0-0-0-0-0-0-0-0-0-0-0-0-0-0-0-0-0-0-|
D|-0-0-0-0-0-0-0-0-0-0-0-0-0-0-0-0-2-2-2-2-0-0-0-0-2-2-2-2-2-2-2-2-|
A|-2-2-2-2-2-2-2-2-2-2-2-2-2-2-2-2-3-3-3-3-2-2-2-2-0-0-0-0-0-0-0-0-|
E|-3-3-3-3-3-3-3-3-3-3-3-3-3-3-3-3---------------------------------|

  Gtr 1
e|---------------------------------|
B|----------------3-4-3------------|
G|--------------5--------5---------|
D|---------------------------------|
A|---------------------------------|
E|---------------------------------|
 |
 |Gtr 2
e|-1-----------------------1-1-1-1-|
B|-1-----------------------1-1-1-1-|
G|-1-----------------------1-1-1-1-|
D|-3-----------------------3-3-3-3-|
A|-3-----------------------3-3-3-3-|
E|-1-----------------------1-1-1-1-|


Chorus
  Gtr. 1
e|-------3---------0-----------3---------0-------------------0---0-------0-----------|
B|---5-----5---1-----1-----5-----5---1-----1-------1-3-1---3---3-------3---3-------1-|
G|-5---5-----2---2-----2-5---5-----2---2-----2---1-------5-----------0---------0-2---|
D|---------------------------------------------3-------------------2---------3-------|
A|-----------------------------------------------------------------------------------|
E|-----------------------------------------------------------------------------------|
 |
 |Gtr. 2
e|-0---------0-----------0---------0-----------1---------0---------0---------1-------|
B|-1---------1-----------1---------1-----------1---------1---------1---------1-------|
G|-0---------0-----------0---------0-----------1---------0---------0---------2-------|
D|-2---------2-----------2---------2-----------3---------2---------0---------3-------|
A|-3---------0-----------3---------3-----------3---------3---------2---------3-------|
E|---------------------------------------------1-----------------------------1-------|
 |
 |Gtr. 3
e|-----------------------------------------------------------------------------------|
B|-8-8-8-8-6-5-8-8-8-8-6-5-8-8-8-8-6-5-8-8-8-8-6-5-----------------------------------|
G|-9-9-9-9-7-5-9-9-9-9-7-5-9-9-9-9-7-5-9-9-9-9-7-5-----------------------------------|
D|-----------------------------------------------------------------------------------|
A|-----------------------------------------------------------------------------------|
E|-----------------------------------------------------------------------------------|

  Gtr. 1
e|-------3---------0-----------3---------0-------------------0---0-------0-----------|
B|---5-----5---1-----1-----5-----5---1-----1-------1-3-1---3---3-------3---3-------1-|
G|-5---5-----2---2-----2-5---5-----2---2-----2---1-------5-----------0---------0-2---|
D|---------------------------------------------3-------------------2---------3-------|
A|-----------------------------------------------------------------------------------|
E|-----------------------------------------------------------------------------------|
 |
 |Gtr. 2
e|-0---------0-----------0---------0-----------1---------0---------0---------1-------|
B|-1---------1-----------1---------1-----------1---------1---------1---------1-------|
G|-0---------0-----------0---------0-----------1---------0---------0---------2-------|
D|-2---------2-----------2---------2-----------3---------2---------0---------3-------|
A|-3---------0-----------3---------3-----------3---------3---------2---------3-------|
E|---------------------------------------------1-----------------------------1-------|
 |
 |Gtr. 3
e|-----------------------------------------------------------------------------------|
B|-8-8-8-8-6-5-8-8-8-8-6-5-8-8-8-8-6-5-8-8-8-8-6-5-----------------------------------|
G|-9-9-9-9-7-5-9-9-9-9-7-5-9-9-9-9-7-5-9-9-9-9-7-5-----------------------------------|
D|-----------------------------------------------------------------------------------|
A|-----------------------------------------------------------------------------------|
E|-----------------------------------------------------------------------------------|


Outro (Fade out)
  Gtr. 1
e|------------------------------------------------------------------|
B|-8-8-8-8-6--5--8-8-8-8-6--5-------8-8-8-8-6--5--8-8-8-8-6--5------|
G|-9-9-9-9-7--5--9-9-9-9-7--5-------9-9-9-9-7--5--9-9-9-9-7--5------|
D|------------------------------------------------------------------|
A|------------------------------------------------------------------|
E|------------------------------------------------------------------|
 |
 |Gtr. 2
e|-0-0-0-0-0-0-0-0-0-0-0-0-0-0-0-0--0-0-0-0-0-0-0-0-0-0-0-0-0-0-0-0-|
B|-1-1-1-1-1-1-1-1-1-1-1-1-1-1-1-1--1-1-1-1-1-1-1-1-1-1-1-1-1-1-1-1-|
G|-0-0-0-0-0-0-0-0-0-0-0-0-0-0-0-0--0-0-0-0-0-0-0-0-0-0-0-0-0-0-0-0-|
D|-2-2-2-2-2-2-2-2-2-2-2-2-2-2-2-2--2-2-2-2-2-2-2-2-2-2-2-2-2-2-2-2-|
A|-3-3-3-3-3-3-3-3-3-3-3-3-3-3-3-3--0-0-0-0-0-0-0-0-0-0-0-0-0-0-0-0-|
E|------------------------------------------------------------------|

  Gtr. 1
e|------------------------------------------------------------------|
B|-8-8-8-8-6--5--8-8-8-8-6--5-------8-8-8-8-6--5--8-8-8-8-6--5------|
G|-9-9-9-9-7--5--9-9-9-9-7--5-------9-9-9-9-7--5--9-9-9-9-7--5------|
D|------------------------------------------------------------------|
A|------------------------------------------------------------------|
E|------------------------------------------------------------------|
 |
 |Gtr. 2
e|-0-0-0-0-0-0-0-0-0-0-0-0-0-0-0-0--0-0-0-0-0-0-0-0-0-0-0-0-0-0-0-0-|
B|-1-1-1-1-1-1-1-1-1-1-1-1-1-1-1-1--1-1-1-1-1-1-1-1-1-1-1-1-1-1-1-1-|
G|-0-0-0-0-0-0-0-0-0-0-0-0-0-0-0-0--0-0-0-0-0-0-0-0-0-0-0-0-0-0-0-0-|
D|-2-2-2-2-2-2-2-2-2-2-2-2-2-2-2-2--2-2-2-2-2-2-2-2-2-2-2-2-2-2-2-2-|
A|-3-3-3-3-3-3-3-3-3-3-3-3-3-3-3-3--0-0-0-0-0-0-0-0-0-0-0-0-0-0-0-0-|
E|------------------------------------------------------------------|
comments
print report bad tab
2 comments total.
+1 reply
GoatPuNisMenT wrote on May 10 2002, 12:00 am

funny. this looks just like the one posted on foofighters.com. weird. Haha j/k. Good to at least see the acurate one up though. Take it easy bro.

0 reply
jiffaka wrote on February 18 2010, 05:16 am

g.reat tab

I want to post or [tab]
guest
You may want to rate the tab now too:
select rating
Please do not post tabs as comments. Select "correction" instead!