Oops, an error
Loading. Please wait.

Arlandria Bass Tab

ver4
ver4

Whole song

Interactive

More versions @911Tabs.com
2,066 views 30 this week
no commentswrite comment
1 2 3 4 5
excellent!
x 2
Autoscroll
+/-
esc
set tempo
stop
Contributor
Difficulty
intermediate
Hey! There's an official Ultimate Guitar app which is ideal
for learning songs when you're away from computer. Get the app
WARNING: You are trying to view
                                    content from Ultimate-Guitar.com
                                    in an unauthorized application,
                                    which is prohibited.

                                    Please use an official Ultimate
                                    Guitar Tabs application for iPhone,
                                    iPad or Android to access legitimate
                                    chords, guitar, bass, and drum tabs
                                    from Ultimate-Guitar.com database.

                                    Type "ultimate guitar tabs" in Apple
                                    App Store's or Android Market's
                                    search to find the application.
                                  Arlandria                                     


                                                                    Foo Fighters
Bass



     E  E  E  Q    Q    E     E  E  E  Q    E  E  E     E  E  E  Q    Q    E   
G||------------------------|-------------------------|------------------------|
D||--------6--4----6-------|--------6--4-------------|--------6--4----6-------|
A||--4--7------------------|--4--7----------7--4-----|--4--7------------------|
E||------------------------|-------------------------|------------------------|


  E  E  E  Q    E  Q       W                   W                 
------------------------|-------------------|-------------------|
--------6--4----6-------|-------------------|-------------------|
--4--7-------------7----|--L----------------|-------------------|
------------------------|-------------------|-------------------|


  W                   W                   W                   W                 
-------------------|-------------------|-------------------|-------------------|
-------------------|-------------------|-------------------|-------------------|
-------------------|-------------------|-------------------|-------------------|
-------------------|-------------------|-------------------|-------------------|


  W                   W                   W                   W                 
-------------------|-------------------|-------------------|-------------------|
-------------------|-------------------|-------------------|-------------------|
-------------------|-------------------|-------------------|-------------------|
-------------------|-------------------|-------------------|-------------------|


  W                   W                   W                   W                 
-------------------|-------------------|-------------------|-------------------|
-------------------|-------------------|-------------------|-------------------|
-------------------|-------------------|-------------------|-------------------|
-------------------|-------------------|-------------------|-------------------|


  W                   E  E  E  E  E  E  E  E     E  E  E  E  E  E  E  E   
-------------------|--------------------------|--------------------------|
-------------------|--------------------------|--------------------------|
-------------------|--4--4--4--0--0--0--0--0--|--------------------------|
-------------------|--------------------------|--0--0--0--2--2--2--2--2--|


  E  E  E  E  E  E  E  E     E  E  E  E  E  E  E  E   
--------------------------|--------------------------|
--------------------------|--------------------------|
--4--4--4--0--0--0--0--0--|--------------------------|
--------------------------|--0--0--0--2--2--2--2--2--|


  E  E  E  E  E  E  E  E     E  E  E  E  E  E  E  E   
--------------------------|--------------------------|
--------------------------|--------------------------|
--4--4--4--4--4--4--4-----|--0--0--0--0--0--0--0--2--|
-----------------------0--|--------------------------|


  E  E  E  E  E  E  E  E     E  E  E  E  E  E  E  E   
--------------------------|--------------------------|
--------------------------|--------------------------|
--------------------------|--2--2--2--2--2-----------|
--0--0--0--0--0--0--0--2--|-----------------2--2--2--|


  E  E  E  E  E  E  E  E     E  E  E  E  E  E  E  E   
--------------------------|--------------------------|
--------------------------|--------------------------|
--4--4--4--4--4--4--4-----|--0--0--0--0--0--0--0--2--|
-----------------------0--|--------------------------|


  E  E  E  E  E  E  E  E     E  E  E  E  E  E  E  E   
--------------------------|--------------------------|
--------------------------|--------------------------|
--------------------------|--2--2--2--2--3--3--3--3--|
--0--0--0--0--0--0--0--2--|--------------------------|


  E  E  E  E  E  E  E  E     E  E  E  Q    E  E  E     E  E  E  E  E  E  E  E   
--------------------------|-------------------------|--------------------------|
--------------------------|-------------------------|--------------------------|
--4--4--4--4--4--4--4-----|-------------------------|--0--0--0--0--0--0--0-----|
-----------------------0--|--2--2--4--2----0--2--4--|-----------------------0--|


  E  E  E  E  E  E  E  E     E  E  E  E  E  E  E  E     E  E  E  Q    E  E  E   
--------------------------|--------------------------|-------------------------|
--------------------------|--------------------------|-------------------------|
--2--2--2--2--3--3--3--3--|--4--4--4--4--4--4--4-----|-------------------------|
--------------------------|-----------------------0--|--2--2--4--2----0--2--4--|


  E  E  E  E  E  E  E  E     E  E  E  E  E  E  E  E     E  E  E  E  H         
--------------------------|--------------------------|-----------------------|
--------------------------|--------------------------|-----------------------|
--0--0--0--0--0--0--0-----|--2--2--2--2--3--3--3--3--|--4--0--4--0-----------|
-----------------------0--|--------------------------|-----------------------|


  E  E  E  E  H           E  E  E  E  H           E  E  E  H        E   
-----------------------|-----------------------|-----------------------|
-----------------------|-----------------------|-----------------------|
-----------------------|--4--0--4--0-----------|-----------------------|
--0--0--0--2-----------|-----------------------|--0--0--4--2--------L--|


  W                   W                   W                   W                 
-------------------|-------------------|-------------------|-------------------|
-------------------|-------------------|-------------------|-------------------|
-------------------|-------------------|-------------------|-------------------|
-------------------|-------------------|-------------------|-------------------|


  W                   W                   W                   W                 
-------------------|-------------------|-------------------|-------------------|
-------------------|-------------------|-------------------|-------------------|
-------------------|-------------------|-------------------|-------------------|
-------------------|-------------------|-------------------|-------------------|


  E  E  E  E  E  E  E  E     E  E  E  E  E  E  E  E   
--------------------------|--------------------------|
--------------------------|--------------------------|
--4--4--4--0--0--0--0--0--|--------------------------|
--------------------------|--0--0--0--2--2--2--2--0--|


  E  E  E  E  E  E  E  E     E  E  E  E  E  E  E  E   
--------------------------|--------------------------|
--------------------------|--------------------------|
--4--4--4--0--0--0--0--0--|--------------------------|
--------------------------|--0--0--0--2--2--2--0--2--|


  E  E  E  E  E  E  E  E     E  E  E  E  E  E  E  E   
--------------------------|--------------------------|
--------------------------|--------------------------|
--4--4--4--0--0--0--0--0--|--------------------------|
--------------------------|--0--0--0--2--2--2--2--2--|


  E  E  E  E  E  E  E  E     E  E  E  E  E  E  E  E   
--------------------------|--------------------------|
--------------------------|--------------------------|
--4--4--4--0--0--0--0--0--|--------------------------|
--------------------------|--0--0--0--2--2--2--2--2--|


  E  E  E  E  E  E  E  E     E  E  E  E  E  E  Q      
--------------------------|--------------------------|
--------------------------|--2--2--2--4--4--4--4\----|
--4--4--4--0--0--0--0--0--|--------------------------|
--------------------------|--------------------------|


  E  E  E  E  E  E  E  E     E  E  E  E  E  E  E  E   
--------------------------|--------------------------|
--------------------------|--------------------------|
--4--4--4--4--4--4--4-----|--0--0--0--0--0--0--0--2--|
-----------------------0--|--------------------------|


  E  E  E  E  E  E  E  E     E  E  E  E  E  E  E  E   
--------------------------|--------------------------|
--------------------------|--------------------------|
--------------------------|--2--2--2--2--2-----------|
--0--0--0--0--0--0--0--2--|-----------------2--2--2--|


  E  E  E  E  E  E  E  E     E  E  E  E  E  E  E  E   
--------------------------|--------------------------|
--------------------------|--------------------------|
--4--4--4--4--4--4--4-----|--0--0--0--0--0--0--0--2--|
-----------------------0--|--------------------------|


  E  E  E  E  E  E  E  E     E  E  E  E  E  E  E  E   
--------------------------|--------------------------|
--------------------------|--------------------------|
--------------------------|--2--2--2--2--3--3--3--3--|
--0--0--0--0--0--0--0--2--|--------------------------|


  E  E  E  E  E  E  E  E     E  E  E  Q    E  E  E     E  E  E  E  E  E  E  E   
--------------------------|-------------------------|--------------------------|
--------------------------|-------------------------|--------------------------|
--4--4--4--4--4--4--4-----|-------------------------|--0--0--0--0--0--0--0-----|
-----------------------0--|--2--2--4--2----0--2--4--|-----------------------0--|


  E  E  E  E  E  E  E  E     E  E  E  Q    E  E  E     E  E  E  Q    E  E  E   
--------------------------|-------------------------|-------------------------|
--------------------------|-------------------------|-------------------------|
--2--2--2--2--3--3--3--3--|--4--4--4--4----4--2-----|-------------------------|
--------------------------|----------------------4--|--2--2--4--2----0--2--4--|


  E  E  E  E  E  E  E  E     E  E  E  E  E  E  E  E   
--------------------------|--------------------------|
-----------------------2--|--------------------------|
--0--0--0--0--0--2--4-----|--2--2--2--2--3--3--3--3--|
--------------------------|--------------------------|


  E  E  E  E  E  E  E  E     E  E  E  E  E  E  E  E   
--------------------------|--------------------------|
--------------------------|--------------------------|
--4--4--4--4--4--4--4-----|--0--0--0--0--0--0--2--4--|
-----------------------0--|--------------------------|


  E  E  E  E  E  E  E  E     E  E  E  E  E  E  E  E   
--------------------------|--------------------------|
--------------------------|--------------------------|
--------------------------|--2--2--2--2--2-----------|
--0--0--0--0--0--0--0--2--|-----------------2--2--2--|


  E  E  E  E  E  E  E  E     E  E  E  E  E  E  E  E   
--------------------------|--------------------------|
--------------------------|-----------------------2--|
--4--4--4--4--4--4--4-----|--0--0--0--0--0--2--4-----|
-----------------------0--|--------------------------|


  E  E  E  E  E  E  E  E     E  E  E  E  E  E  E  E     Q     Q    H         
--------------------------|--------------------------|----------------------|
--------------------------|--------------------------|----------------------|
--------------------------|--2--2--2--2--3--3--3--3--|--4\------------------|
--0--0--0--0--0--0--0--2--|--------------------------|----------------------|


  W                   W                   W                   W                 
-------------------|-------------------|-------------------|-------------------|
-------------------|-------------------|-------------------|-------------------|
-------------------|-------------------|-------------------|-------------------|
-------------------|-------------------|-------------------|-------------------|


  W                   W                   W                 
-------------------|-------------------|-------------------|
-------------------|-------------------|-------------------|
-------------------|-------------------|-------------------|
-------------------|-------------------|-------------------|


  E  E  E  E  E  E  E  E     E  E  E  E  E  E  E  E   
--------------------------|--------------------------|
--------------------------|--------------------------|
--4--4--4--0--0--0--0--0--|--------------------------|
--------------------------|--0--0--0--2--2--2--2--2--|


  E  E  E  E  E  E  E  E     E  E  E  E  E  E  E  E   
--------------------------|--------------------------|
--------------------------|--------------------------|
--4--4--4--0--0--0--0--0--|--------------------------|
--------------------------|--0--0--0--2--2--2--2--2--|


  E  E  E  E  E  E  E  E     E  E  E  E  E  E  E  E   
--------------------------|--------------------------|
--------------------------|--------------------------|
--4--4--4--0--0--0--0--0--|--------------------------|
--------------------------|--0--0--0--2--2--2--2--2--|


  E  E  E  E  E  E  E  E     E  E  E  E  E  E  E  E   
--------------------------|--------------------------|
--------------------------|--------------------------|
--4--4--4--0--0--0--0--0--|--------------------------|
--------------------------|--0--0--0--2--2--2--2--2--|


  E  E  E  E  E  E  E  E     E  E  E  E  E  E  E  E   
--------------------------|--------------------------|
--------------------------|--2--2--2--4--4--4--4--4--|
--4--4--4--0--0--0--0--0--|--------------------------|
--------------------------|--------------------------|


  E  E  E  E  E  E  E  E     E  E  E   E   E   E   Q      
--6--6--6-----------------|--9--9--9--11--11--11--11\----|
-----------7--7--7--7--7--|------------------------------|
--------------------------|------------------------------|
--------------------------|------------------------------|


  E  E  E  E  E  E  E  E     E  E  E  E  E  E  E  E   
--------------------------|--------------------------|
--------------------------|--------------------------|
--4--4--4--4--4--4--4-----|--0--0--0--0--0--0--0--2--|
-----------------------0--|--------------------------|


  E  E  E  E  E  E  E  E     E  E  E  E  E  E  E  E   
--------------------------|--------------------------|
--------------------------|--------------------------|
--------------------------|--2--2--2--2--2-----------|
--0--0--0--0--0--0--0--2--|-----------------2--2--2--|


  E  E  E  E  E  E  E  E     E  E  E  E  E  E  E  E   
--------------------------|--------------------------|
--------------------------|--------------------------|
--4--4--4--4--4--4--4-----|--0--0--0--0--0--0--0--2--|
-----------------------0--|--------------------------|


  E  E  E  E  E  E  E  E     E  E  E  E  E  E  E  E   
--------------------------|--------------------------|
--------------------------|--------------------------|
--------------------------|--2--2--2--2--3--3--3--3--|
--0--0--0--0--0--0--0--2--|--------------------------|


  E  E  E  E  E  E  E  E     E  E  E  Q    E  E  E     E  E  E  E  E  E  E  E   
--------------------------|-------------------------|--------------------------|
--------------------------|-------------------------|--------------------------|
--4--4--4--4--4--4--4-----|-------------------------|--0--0--0--0--0--0--0-----|
-----------------------0--|--2--2--4--2----0--2--4--|-----------------------0--|


  E  E  E  E  E  E  E  E     E  E  E  E  E  E  E  E     E  E  E  Q    E  E  E   
--------------------------|--------------------------|-------------------------|
--------------------------|--------------------------|-------------------------|
--2--2--2--2--3--3--3--3--|--4--4--4--4--4--4--4-----|-------------------------|
--------------------------|-----------------------0--|--2--2--4--2----0--2--4--|


  E  E  E  E  E  E  E  E     E  E  E  E  E  E  E  E   
--------------------------|--------------------------|
--------------------------|--------------------------|
--0--0--0--0--0--0--0-----|--2--2--2--2--3--3--3--3--|
-----------------------0--|--------------------------|


  E  E  E  E  E  E  E  E     E  E  E  Q    E  E  E     E  E  E  E  E  E  E  E   
--------------------------|-------------------------|--------------------------|
--------------------------|-------------------------|-----------------------2--|
--4--4--4--4--4--4--2-----|-------------------------|--0--0--0--0--0--2--4-----|
-----------------------4--|--2--2--4--2----0--2--4--|--------------------------|


  E  E  E  E  E  E  E  E     E  E  E  E  E  E  E  E     E  E  E  Q    E  E  E   
--------------------------|--------------------------|-------------------------|
--------------------------|--------------------------|-------------------------|
--2--2--2--2--3--3--3--3--|--4--4--4--4--4--4--2-----|-------------------------|
--------------------------|-----------------------4--|--2--2--4--2----0--2--4--|


  E  E  E  E  E  E  E  E     E  E  E  E  E  E  E  E     W                  
--------------------------|--------------------------|-------------------||
-----------------------2--|--------------------------|-------------------||
--0--0--0--0--0--2--4-----|--2--2--2--2--3--3--3--3--|-------------------||
--------------------------|--------------------------|-------------------||




Duration Legend
---------------
W - whole
H - half
Q - quarter
E - 8th
S - 16th
T - 32nd
X - 64th
. - note dotted
|-n-|  - n-tuplets


Tablature Legend
----------------
L - tied note
x - dead note
g - grace note
(n) - ghost note
> - accentuded note
NH - natural harmonic
AH - artificial harmonic
TH - tapped harmonic
SH - semi harmonic
PH - pitch harmonic
h - hammer on
p - pull off
b - bend
br - bendRelease
pb - preBend
pbr - preBendRelease
brb - bendReleaseBend
\n/ - tremolo bar dip
\n - tremolo bar dive
-/n - tremolo bar Release up
/n\ - tremolo bar inverted dip
/n - tremolo bar return
-\n - tremolo bar Release down
S - shift slide
s - legato slide
/ -  slide into from below or out of upwards
\ -  slide into from above or out of downwards
~ - vibrato
W - wide vibrato
tr - trill
TP - tremolo picking
T - tapping
S - slap
P - pop
< - fade in
^ - brush up
v - brush down
comments
We did not receive enough feedback on this tab! Please rate:
print report bad tab
1 2 3 4 5
I want to post or [tab]
guest
You may want to rate the tab now too:
select rating
Please do not post tabs as comments. Select "correction" instead!