Oops, an error
Loading. Please wait.

Arlandria Tab

ver6
ver6
More versions @911Tabs.com
2,132 views 3 this week
no commentswrite comment
1 2 3 4 5
please rate
Autoscroll
+/-
esc
set tempo
stop
Contributor
Difficulty
intermediate
WARNING: You are trying to view
                                    content from Ultimate-Guitar.com
                                    in an unauthorized application,
                                    which is prohibited.

                                    Please use an official Ultimate
                                    Guitar Tabs application for iPhone,
                                    iPad or Android to access legitimate
                                    chords, guitar, bass, and drum tabs
                                    from Ultimate-Guitar.com database.

                                    Type "ultimate guitar tabs" in Apple
                                    App Store's or Android Market's
                                    search to find the application.
-------------------------------------------------------------------------------
                             ARLANDRIA - FOO FIGHTERS
-------------------------------------------------------------------------------
Tabbed by:Kurtaypan
Email:mophorecordings@hotmail.com

This is my first tab........

Tuning: EADGBE

| /   slide up
| \   slide down
| h   hammer-on
| p   pull-off
| ~   vibrato
| b   Bend
|(PM) Palm mute

Guitar 1: Dave Grohl
Guitar 2: Chris Shiflett
Guitar 3: Pat Smear


Guitar 1 intro:
e|---------------------------------------------------------------------------|
B|---------------------------------------------------------------------------|
G|---------------------------------------------------------------------------|
D|---------------------------------------------------------------------------|
A|---7-11-9-11--------7-11-9-7-------7-11-9-11--------7-11-9-11-7~~~---------|
E|-9-----------9\---9----------9---9-----------9\---9------------------------|


Guitar 2 intro:
e|---------------------------------------------------------------------------|
B|---------------------------------------------------------------------------|
G|---------------------------------------------------------------------------|
D|---------------------------------------------------------------------------|
A|---7-11-9-11--------7-11-9-7-------7-11-9-11--------7-11-9-11-7~~~---------|
E|-9-----------9\---9----------9---9-----------9\---9------------------------|


Guitar 3 intro:
e|---------------------------------------------------------------------------|
B|---------------------------------------------------------------------------|
G|---------------------------------------------------------------------------|
D|---------------------------------------------------------------------------|
A|---7-11-9-11--------7-11-9-7-------7-11-9-11--------7-11-9-11-7~~~---------|
E|-9-----------9\---9----------9---9-----------9\---9------------------------|


Guitar 1 1st verse: (0:10)
e|---------------------------------------------------------------------------|
B|---------------------------------------------------------------------------|
G|---------------------------------------------------------------------------|
D|---------------------------------------------------------------------------|
A|-4-4-4-0-0-0-0-0--------------------4-4-4-0-0-0-0-0------------------------|
E|-------------------0-0-0-2-2-2-2-0-------------------0-0-0-2-2-2-2-0-------|
  (((((((((((((((((((((((((((((((((PM))))))))))))))))))))))))))))))))))))))))

e|---------------------------------------------------------------------------|
B|---------------------------------------------------------------------------|
G|---------------------------------------------------------------------------|
D|---------------------------------------------------------------------------|
A|-4-4-4-0-0-0-0-0---------------------4-4-4-0-0-0-0-0-----------------------|
E|-------------------0-0-0-2-2-2-2-0-------------------0-0-0-2-2-2-2-0-------|
  (((((((((((((((((((((((((((((((((PM))))))))))))))))))))))))))))))))))))))))

e|---------------------------------------------------------------------------|
B|---------------------------------------------------------------------------|
G|---------------------------------------------------------------------------|
D|---------------------------------------------------------------------------|
A|-4-4-4-0-0-0-0-0---------------------4-4-4-0-0-0-0-0-----------------------|
E|-------------------0-0-0-2-2-2-2-0-------------------0-0-0-2-2-2-2-0-------|
  (((((((((((((((((((((((((((((((((PM))))))))))))))))))))))))))))))))))))))))

e|---------------------------------------------------------------------------|
B|---------------------------------------------------------------------------|
G|---------------------------------------------------------------------------|
D|---------------------------------------------------------------------------|
A|-4-4-4-0-0-0-0-0--------------------4-4-4-0-0-0-0-0------------------------|
E|------------------0-0-0-2-2-2-2-0-------------------0-0-0-2-2-2-2-0--------|
  ((((((((((((PM)))))))))))))))))))))

e|-----------------------------------|
B|-----------------------------------|
G|-----------------------------------|
D|-----------------------------------|
A|-4-4-4-0-0-0-0-0----------------9\-|
E|------------------0-0-0-2-2-2-2-9\-|


Guitar 2 1st verse: (0:10)
e|---------------------------------------------------------------------------|
B|---------------------------------------------------------------------------|
G|---------------------------------------------------------------------------|
D|---------------------------------------------------------------------------|
A|---------------------------------------------------------------------------|
E|---------------------------------------------------------------------------|

e|---------------------------------------------------------------------------|
B|---------------------------------------------------------------------------|
G|---------------------------------------------------------------------------|
D|---------------------------------------------------------------------------|
A|---------------------------------------------------------------------------|
E|---------------------------------------------------------------------------|

e|---------------------------------------------------------------------------|
B|---------------------------------------------------------------------------|
G|---------------------------------------------------------------------------|
D|---------------------------------------------------------------------------|
A|-4-4-4-0-0-0-0-0--------------------4-4-4-0-0-0-0-0------------------------|
E|-------------------0-0-0-2-2-2-2-0-------------------0-0-0-2-2-2-2-0-------|
  (((((((((((((((((((((((((((((((((PM))))))))))))))))))))))))))))))))))))))))

e|---------------------------------------------------------------------------|
B|---------------------------------------------------------------------------|
G|---------------------------------------------------------------------------|
D|---------------------------------------------------------------------------|
A|-4-4-4-0-0-0-0-0---------------------4-4-4-0-0-0-0-0-----------------------|
E|-------------------0-0-0-2-2-2-2-0-------------------0-0-0-2-2-2-2-0-------|
  (((((((((((((((((((((((((((((((((PM))))))))))))))))))))))))))))))))))))))))

e|---------------------------------------------------------------------------|
B|---------------------------------------------------------------------------|
G|----------------------------------------11b(13)-11b(13)-11b(13)-11b(13)----|
D|---------------------------------------------------------------------------|
A|-4-4-4-0-0-0-0-0-----------------------------------------------------------|
E|-------------------0-0-0-2-2-2-2-0-----------------------------------------|
  ((((((((((((((PM))))))))))))))))))

e|-------------------------------------|
B|-------------------------------------|
G|-11b(13)-11b(13)-11b(13)-11b(13)-----|
D|-------------------------------------|
A|----------------------------------9\-|
E|----------------------------------9\-|


Guitar 1 1st chorus: (0:47)
e|---------------------------------------------------------------------------|
B|---------------------------------------------------------------------------|
G|-66666666--22222222--11111111--4-4-4-4-------------------------------------|
D|-66666666--22222222--22222222--4-4-4-4--4-4-4------------------------------|
A|-44444444------------22222222--2-2-2-2--4-4-4------------------------------|
E|----------------------------------------2-2-2------------------------------|

e|---------------------------------------------------------------------------|
B|---------------------------------------------------------------------------|
G|-66666666--22222222--11111111--4--4-4---5--5-5-----------------------------|
D|-66666666--22222222--22222222--4--4-4---5--5-5-----------------------------|
A|-44444444------------22222222--2--2-2---3--3-3-----------------------------|
E|---------------------------------------------------------------------------|

e|---------------------------------------------------------------------------|
B|---------------------------------------------------------------------------|
G|--6-6-6-6-6-6---------------2-2-2-2-2-2--4--4-4--5--5-5--------------------|
D|--6-6-6-6-6-6--4-4-4-4-4-4--2-2-2-2-2-2--4--4-4--5--5-5--------------------|
A|--4-4-4-4-4-4--4-4-4-4-4-4---------------2--2-2--3--3-3--------------------|
E|---------------2-2-2-2-2-2-------------------------------------------------|

e|---------------------------------------------------------------------------|
B|---------------------------------------------------------------------------|
G|--6-6-6-6-6-6---------------2-2-2-2-2-2--4--4-4--5--5-5--------------------|
D|--6-6-6-6-6-6--4-4-4-4-4-4--2-2-2-2-2-2--4--4-4--5--5-5--------------------|
A|--4-4-4-4-4-4--4-4-4-4-4-4---------------2--2-2--3--3-3--------------------|
E|---------------2-2-2-2-2-2-------------------------------------------------|


Guitar 2 1st chorus: (0:47)
e|---------------------------------------------------------------------------|
B|---------------------------------------------------------------------------|
G|-66666666--22222222--11111111--4-4-4-4-------------------------------------|
D|-66666666--22222222--22222222--4-4-4-4--4-4-4------------------------------|
A|-44444444------------22222222--2-2-2-2--4-4-4------------------------------|
E|----------------------------------------2-2-2------------------------------|

e|---------------------------------------------------------------------------|
B|---------------------------------------------------------------------------|
G|-66666666--22222222--11111111--4--4-4---5--5-5-----------------------------|
D|-66666666--22222222--22222222--4--4-4---5--5-5-----------------------------|
A|-44444444------------22222222--2--2-2---3--3-3-----------------------------|
E|---------------------------------------------------------------------------|

e|---------------------------------------------------------------------------|
B|---------------------------------------------------------------------------|
G|-6---------4h6p4---------------11b(13)--12b(14)----------------------------|
D|-6--------------6-4--4/7---------------------------------------------------|
A|-4-------------------4/7---------------------------------------------------|
E|---------------------2/5---------------------------------------------------|
     (let ring)

e|---------------------------------------------------------------------------|
B|---------------------------------------------------------------------------|
G|-6---------4h6p4---------------11b(13)--12b(14)----------------------------|
D|-6--------------6-4--4/7---------------------------------------------------|
A|-4-------------------4/7---------------------------------------------------|
E|---------------------2/5---------------------------------------------------|
     (let ring)


Guitar 3 1st chorus: (0:47)
e|---------------------------------------------------------------------------|
B|---------------------------------------------------------------------------|
G|-----------------------------99999999--------------------------------------|
D|-1111111111111111--77777777--99999999--9-9-9-9--4-4-4----------------------|
A|-1111111111111111--77777777--77777777--9-9-9-9--4-4-4----------------------|
E|-9-9-9-9-9-9-9-9---55555555------------7-7-7-7--2-2-2----------------------|

e|---------------------------------------------------------------------------|
B|---------------------------------------------------------------------------|
G|-----------------------------99999999--------------------------------------|
D|-1111111111111111--77777777--99999999--9---9-9---10---10-10----------------|
A|-1111111111111111--77777777--77777777--9---9-9---10---10-10----------------|
E|-9-9-9-9-9-9-9-9---55555555------------7---7-7---8----8--8-----------------|

e|---------------------------------------------------------------------------|
B|---------------------------------------------------------------------------|
G|--------------------7-7-7-7-7-7--------------------------------------------|
D|-11-11-11-11-11-11--7-7-7-7-7-7--7-7-7-7-7-7---9---9-9--10--10-10----------|
A|-11-11-11-11-11-11--9-9-9-9-9-9--7-7-7-7-7-7---9---9-9--10--10-10----------|
E|-9--9--9--9--9--9----------------5-5-5-5-5-5---7---7-7--8---8--8-----------|

e|---------------------------------------------------------------------------|
B|---------------------------------------------------------------------------|
G|--------------------7-7-7-7-7-7--------------------------------------------|
D|-11-11-11-11-11-11--7-7-7-7-7-7--7-7-7-7-7-7---9---9-9--10--10-10----------|
A|-11-11-11-11-11-11--9-9-9-9-9-9--7-7-7-7-7-7---9---9-9--10--10-10----------|
E|-9--9--9--9--9--9----------------5-5-5-5-5-5---7---7-7--8---8--8-----------|


Guitar 1 1st bridge: (1:20)
e|---------------------------------------------------------------------------|
B|-0000000000000-------------------------------------------------------------|
G|-4444444433333-------------------------------------------------------------|
D|---------------------------------------------------------------------------|
A|---------------------------------------------------------------------------|
E|---------------------------------------------------------------------------|


Guitar 2 1st bridge: (1:20)
e|---------------------------------------------------------------------------|
B|-0000000000000-------------------------------------------------------------|
G|-4444444433333-------------------------------------------------------------|
D|---------------------------------------------------------------------------|
A|---------------------------------------------------------------------------|
E|---------------------------------------------------------------------------|


Guitar 1 2nd verse: (1:29)
e|---------------------------------------------------------------------------|
B|---------------------------------------------------------------------------|
G|---------------------------------------------------------------------------|
D|---------------------------------------------------------------------------|
A|-4-4-4-0-0-0-0-0--------------------4-4-4-0-0-0-0-0------------------------|
E|-------------------0-0-0-2-2-2-2-0-------------------0-0-0-2-2-2-2-0-------|
  (((((((((((((((((((((((((((((((((PM))))))))))))))))))))))))))))))))))))))))

e|---------------------------------------------------------------------------|
B|---------------------------------------------------------------------------|
G|---------------------------------------------------------------------------|
D|---------------------------------------------------------------------------|
A|-4-4-4-0-0-0-0-0---------------------4-4-4-0-0-0-0-0-----------------------|
E|-------------------0-0-0-2-2-2-2-0-------------------0-0-0-2-2-2-2-0-------|
  (((((((((((((((((((((((((((((((((PM))))))))))))))))))))))))))))))))))))))))

e|---------------------------------------------------------------------------|
B|---------------------------------------------------------------------------|
G|----4-----4---4-----4------3---3----------4-----4---4-----4------3---3-----|
D|---------------------------------------------------------------------------|
A|--4-----0---0---0-----------------------4-----0---0---0--------------------|
E|-------------------0----0h2--2---2-----------------------0----0h2--2---2---|

e|---------------------------------------------------------------------------|
B|---------------------------------------------------------------------------|
G|----4-----4---4-----4------3---3----------4-----4---4-----4------3---3-----|
D|---------------------------------------------------------------------------|
A|--4-----0---0---0-----------------------4-----0---0---0--------------------|
E|-------------------0----0h2--2---2-----------------------0----0h2--2---2---|

e|---------------------------------------|
B|---------------------------------------|
G|----4-----4---4-----4------3---3-------|
D|---------------------------------------|
A|--4-----0---0---0-------------------9\-|
E|-------------------0----0h2--2---2--9\-|


Guitar 2 2nd verse: (1:29)
e|-----0------0------------------0----------0--------0----------------0------|
B|---0------0-----------0------0----------0--------0----------0-----0--------|
G|-1------3----3------1------3----3-----1--------3----3-----1-----3----3-----|
D|------4-----------2------4-------------------4----------2-----4------------|
A|---------------------------------------------------------------------------|
E|---------------------------------------------------------------------------|

e|-----0------0------------------0----------0--------0-----------------------|
B|---0------0-----------0------0----------0--------0----------0--------------|
G|-1------3----3------1------3----3-----1--------3----3-----1----------------|
D|------4-----------2------4-------------------4----------2-----4------------|
A|---------------------------------------------------------------------------|
E|---------------------------------------------------------------------------|

e|---------------------------------------------------------------------------|
B|---------------------------------------------------------------------------|
G|----4-----4---4-----4------3---3----------4-----4---4-----4------3---3-----|
D|---------------------------------------------------------------------------|
A|--4-----0---0---0-----------------------4-----0---0---0--------------------|
E|-------------------0----0h2--2---2-----------------------0----0h2--2---2---|

e|---------------------------------------------------------------------------|
B|---------------------------------------------------------------------------|
G|----4-----4---4-----4------3---3--------12b(14)--12b(14)--12b(14)--12b(14)-|
D|---------------------------------------------------------------------------|
A|--4-----0---0---0----------------------------------------------------------|
E|-------------------0----0h2--2---2-----------------------------------------|

e|---------------------------------------|
B|---------------------------------------|
G|-12b(14)--12b(14)--12b(14)--12b(14)----|
D|---------------------------------------|
A|------------------------------------9\-|
E|------------------------------------9\-|


Guitar 3 2nd verse: (1:27)
e|---------------------------------------------------------------------------|
B|---------------------------------------------------------------------------|
G|---------------------------------------------------------------------------|
D|---------------------------------------------------------------------------|
A|---------------------------------------------------------------------------|
E|---------------------------------------------------------------------------|

e|---------------------------------------------------------------------------|
B|---------------------------------------------------------------------------|
G|---------------------------------------------------------------------------|
D|---------------------------------------------------------------------------|
A|---------------------------------------------------------------------------|
E|---------------------------------------------------------------------------|

e|---------------------------------------------------------------------------|
B|---------------------------------------------------------------------------|
G|---------------------------------------------------------------------------|
D|---------------------------------------------------------------------------|
A|---------------------------------------------------------------------------|
E|-9\----------------------------------9\------------------------------------|

e|---------------------------------------------------------------------------|
B|---------------------------------------------------------------------------|
G|---------------------------------------------------------------------------|
D|---------------------------------------------------------------------------|
A|---------------------------------------------------------------------------|
E|--9\-----------------------------------------------------------------------|

e|------------------------------------|
B|-13b(14)--13b(14)--13b(14)--13b(14)-|
G|------------------------------------|
D|------------------------------------|
A|------------------------------------|
E|------------------------------------|


Guitar 1 2nd chorus: (2:05)
e|---------------------------------------------------------------------------|
B|---------------------------------------------------------------------------|
G|-66666666--22222222--11111111--4-4-4-4-------------------------------------|
D|-66666666--22222222--22222222--4-4-4-4--4-4-4------------------------------|
A|-44444444------------22222222--2-2-2-2--4-4-4------------------------------|
E|----------------------------------------2-2-2------------------------------|

e|---------------------------------------------------------------------------|
B|---------------------------------------------------------------------------|
G|-66666666--22222222--11111111--4--4-4---5--5-5-----------------------------|
D|-66666666--22222222--22222222--4--4-4---5--5-5-----------------------------|
A|-44444444------------22222222--2--2-2---3--3-3-----------------------------|
E|---------------------------------------------------------------------------|

e|---------------------------------------------------------------------------|
B|---------------------------------------------------------------------------|
G|--6-6-6-6-6-6---------------2-2-2-2-2-2--4--4-4--5--5-5--------------------|
D|--6-6-6-6-6-6--4-4-4-4-4-4--2-2-2-2-2-2--4--4-4--5--5-5--------------------|
A|--4-4-4-4-4-4--4-4-4-4-4-4---------------2--2-2--3--3-3--------------------|
E|---------------2-2-2-2-2-2-------------------------------------------------|

e|---------------------------------------------------------------------------|
B|---------------------------------------------------------------------------|
G|--6-6-6-6-6-6---------------2-2-2-2-2-2--4--4-4--5--5-5--------------------|
D|--6-6-6-6-6-6--4-4-4-4-4-4--2-2-2-2-2-2--4--4-4--5--5-5--------------------|
A|--4-4-4-4-4-4--4-4-4-4-4-4---------------2--2-2--3--3-3--------------------|
E|---------------2-2-2-2-2-2-------------------------------------------------|

e|---------------------------------------------------------------------------|
B|---------------------------------------------------------------------------|
G|-66666666--22222222--11111111--4-4-4-4-------------------------------------|
D|-66666666--22222222--22222222--4-4-4-4--4-4-4------------------------------|
A|-44444444------------22222222--2-2-2-2--4-4-4------------------------------|
E|----------------------------------------2-2-2------------------------------|

e|---------------------------------------------------------------------------|
B|---------------------------------------------------------------------------|
G|--6-6-6-6-6-6---------------2-2-2-2-2-2--4--4-4--5--5-5--6-----------------|
D|--6-6-6-6-6-6--4-4-4-4-4-4--2-2-2-2-2-2--4--4-4--5--5-5--6-----------------|
A|--4-4-4-4-4-4--4-4-4-4-4-4---------------2--2-2--3--3-3--4-----------------|
E|---------------2-2-2-2-2-2-------------------------------------------------|


Guitar 2 2nd chorus: (2:05)
e|---------------------------------------------------------------------------|
B|---------------------------------------------------------------------------|
G|-66666666--22222222--11111111--4-4-4-4-------------------------------------|
D|-66666666--22222222--22222222--4-4-4-4--4-4-4------------------------------|
A|-44444444------------22222222--2-2-2-2--4-4-4------------------------------|
E|----------------------------------------2-2-2------------------------------|

e|---------------------------------------------------------------------------|
B|---------------------------------------------------------------------------|
G|-66666666--22222222--11111111--4--4-4---5--5-5-----------------------------|
D|-66666666--22222222--22222222--4--4-4---5--5-5-----------------------------|
A|-44444444------------22222222--2--2-2---3--3-3-----------------------------|
E|---------------------------------------------------------------------------|

e|---------------------------------------------------------------------------|
B|---------------------------------------------------------------------------|
G|-6---------4h6p4---------------11b(13)--12b(14)----------------------------|
D|-6--------------6-4--4/7---------------------------------------------------|
A|-4-------------------4/7---------------------------------------------------|
E|---------------------2/5---------------------------------------------------|
     (let ring)

e|---------------------------------------------------------------------------|
B|---------------------------------------------------------------------------|
G|-6---------4h6p4---------------11b(13)--12b(14)----------------------------|
D|-6--------------6-4--4/7---------------------------------------------------|
A|-4-------------------4/7---------------------------------------------------|
E|---------------------2/5---------------------------------------------------|
     (let ring)


e|---------------------------------------------------------------------------|
B|---------------------------------------------------------------------------|
G|-13-13/14----13-13-13-11-9-9----9-9-11-8-8-8-------------------------------|
D|---------------------------------------------11-9-11-----------------------|
A|---------------------------------------------------------------------------|
E|---------------------------------------------------------------------------|

e|---------------------------------------------------------------------------|
B|---------------------------------------------------------------------------|
G|-13-13\14----13-13-13-11-9-9-11~-11-11-12~-12-12-13~~----------------------|
D|---------------------------------------------------------------------------|
A|---------------------------------------------------------------------------|
E|---------------------------------------------------------------------------|


Guitar 3 2nd chorus: (2:05)
e|---------------------------------------------------------------------------|
B|---------------------------------------------------------------------------|
G|-----------------------------99999999--------------------------------------|
D|-1111111111111111--77777777--99999999--9-9-9-9--4-4-4----------------------|
A|-1111111111111111--77777777--77777777--9-9-9-9--4-4-4----------------------|
E|-9-9-9-9-9-9-9-9---55555555------------7-7-7-7--2-2-2----------------------|

e|---------------------------------------------------------------------------|
B|---------------------------------------------------------------------------|
G|-----------------------------99999999--------------------------------------|
D|-1111111111111111--77777777--99999999--9---9-9---10---10-10----------------|
A|-1111111111111111--77777777--77777777--9---9-9---10---10-10----------------|
E|-9-9-9-9-9-9-9-9---55555555------------7---7-7---8----8--8-----------------|

e|---------------------------------------------------------------------------|
B|---------------------------------------------------------------------------|
G|--------------------7-7-7-7-7-7--------------------------------------------|
D|-11-11-11-11-11-11--7-7-7-7-7-7--7-7-7-7-7-7---9---9-9--10--10-10----------|
A|-11-11-11-11-11-11--9-9-9-9-9-9--7-7-7-7-7-7---9---9-9--10--10-10----------|
E|-9--9--9--9--9--9----------------5-5-5-5-5-5---7---7-7--8---8--8-----------|

e|---------------------------------------------------------------------------|
B|---------------------------------------------------------------------------|
G|--------------------7-7-7-7-7-7--------------------------------------------|
D|-11-11-11-11-11-11--7-7-7-7-7-7--7-7-7-7-7-7---9---9-9--10--10-10----------|
A|-11-11-11-11-11-11--9-9-9-9-9-9--7-7-7-7-7-7---9---9-9--10--10-10----------|
E|-9--9--9--9--9--9----------------5-5-5-5-5-5---7---7-7--8---8--8-----------|

e|---------------------------------------------------------------------------|
B|---------------------------------------------------------------------------|
G|-----------------------------99999999--------------------------------------|
D|-1111111111111111--77777777--99999999--9-9-9-9--4-4-4----------------------|
A|-1111111111111111--77777777--77777777--9-9-9-9--4-4-4----------------------|
E|-9-9-9-9-9-9-9-9---55555555------------7-7-7-7--2-2-2----------------------|

e|---------------------------------------------------------------------------|
B|---------------------------------------------------------------------------|
G|--------------------7-7-7-7-7-7--------------------------------------------|
D|-11-11-11-11-11-11--7-7-7-7-7-7--7-7-7-7-7-7---9---9-9--10--10-10---11-----|
A|-11-11-11-11-11-11--9-9-9-9-9-9--7-7-7-7-7-7---9---9-9--10--10-10---11-----|
E|-9--9--9--9--9--9----------------5-5-5-5-5-5---7---7-7--8---8--8----9------|


Guitar 1 2nd bridge: (2:55)
e|---------------------------------------------------------------------------|
B|---------------------------------------------------------------------------|
G|---------------------------------------------------------------------------|
D|---------------------------------------------------------------------------|
A|-4-4-4-0-0-0-0-0--------------------4-4-4-0-0-0-0-0------------------------|
E|-------------------0-0-0-2-2-2-2-0-------------------0-0-0-2-2-2-2-0-------|
  (((((((((((((((((((((((((((((((((PM))))))))))))))))))))))))))))))))))))))))

e|---------------------------------------------------------------------------|
B|---------------------------------------------------------------------------|
G|---------------------------------------------------------------------------|
D|---------------------------------------------------------------------------|
A|-4-4-4-0-0-0-0-0---------------------4-4-4-0-0-0-0-0-----------------------|
E|-------------------0-0-0-2-2-2-2-0-------------------0-0-0-2-2-2-2-0-------|
  (((((((((((((((((((((((((((((((((PM))))))))))))))))))))))))))))))))))))))))

e|---------------------------------------------------------------------------|
B|---------------------------------------------------------------------------|
G|---------------------------------------------------------------------------|
D|---------------------------------------------------------------------------|
A|-4-4-4-0-0-0-0-0---------------------4-4-4-0-0-0-0-0-----------------------|
E|-------------------0-0-0-2-2-2-2-0-------------------0-0-0-2-2-2-2-0-------|
  (((((((((((((((((((((((((((((((((PM))))))))))))))))))))))))))))))))))))))))

e|---------------------------------------------------------------------------|
B|---------------------------------------------------------------------------|
G|---------------------------------------------------------------------------|
D|---------------------------------------------------------------------------|
A|-4-4-4-0-0-0-0-0--------------------4-4-4-0-0-0-0-0------------------------|
E|------------------0-0-0-2-2-2-2-0-------------------0-0-0-2-2-2-2-0--------|
  ((((((((((((PM)))))))))))))))))))))

e|---------------------------------------------------------------------------|
B|---------------------------------------------------------------------------|
G|---------------------------------------------------------------------------|
D|---------------------------------------------------------------------------|
A|-4-4-4-0-0-0-0-0--------------------4-4-4-0-0-0-0-0------------------------|
E|------------------0-0-0-2-2-2-2-0-------------------0-0-0-2-2-2-2-0--------|
  ((((((((((((PM)))))))))))))))))))))


Guitar 2 2nd bridge: (2:55)
e|---------------------------------------------------------------------------|
B|---------------------------------------------------------------------------|
G|---------------------------------------------------------------------------|
D|---------------------------------------------------------------------------|
A|-4-4-4-0-0-0-0-0---------------------4-4-4-0-0-0-0-0-----------------------|
E|-------------------0-0-0-2-2-2-2-0-------------------0-0-0-2-2-2-2-0-------|
  (((((((((((((((((((((((((((((((((PM))))))))))))))))))))))))))))))))))))))))

e|---------------------------------------------------------------------------|
B|---------------------------------------------------------------------------|
G|---------------------------------------------------------------------------|
D|---------------------------------------------------------------------------|
A|-4-4-4-0-0-0-0-0--------------------4-4-4-0-0-0-0-0------------------------|
E|------------------0-0-0-2-2-2-2-0-------------------0-0-0-2-2-2-2-0--------|
  ((((((((((((PM)))))))))))))))))))))

e|---------------------------------------------------------------------------|
B|---------------------------------------------------------------------------|
G|---------------------------------------------------------------------------|
D|---------------------------------------------------------------------------|
A|-4-4-4-0-0-0-0-0--------------------4-4-4-0-0-0-0-0------------------------|
E|------------------0-0-0-2-2-2-2-0-------------------0-0-0-2-2-2-2-0--------|
  ((((((((((((PM)))))))))))))))))))))

e|---------------------------------------------------------------------------|
B|---------------------------------------------------------------------------|
G|-12b(14)--12b(14)--12b(14)--12b(14)---12b(14)--12b(14)--12b(14)--12b(14)---|
D|---------------------------------------------------------------------------|
A|---------------------------------------------------------------------------|
E|---------------------------------------------------------------------------|

e|---------------------------------------------------------------------------|
B|---------------------------------------------------------------------------|
G|-12b(14)--12b(14)--12b(14)--12b(14)---12b(14)--12b(14)--12b(14)--12b(14)---|
D|---------------------------------------------------------------------------|
A|---------------------------------------------------------------------------|
E|---------------------------------------------------------------------------|


Guitar 3 2nd bridge: (2:55)
e|---------------------------------------------------------------------------|
B|---------------------------------------------------------------------------|
G|---------------------------------------------------------------------------|
D|---------------------------------------------------------------------------|
A|---------------------------------------------------------------------------|
E|---------------------------------------------------------------------------|

e|---------------------------------------------------------------------------|
B|---------------------------------------------------------------------------|
G|---------------------------------------------------------------------------|
D|---------------------------------------------------------------------------|
A|---------------------------------------------------------------------------|
E|---------------------------------------------------------------------------|

e|---------------------------------------------------------------------------|
B|---------------------------------------------------------------------------|
G|---------------------------------------------------------------------------|
D|---------------------------------------------------------------------------|
A|---------------------------------------------------------------------------|
E|---------------------------------------------------------------------------|

e|---------------------------------------------------------------------------|
B|-13b(14)--13b(14)--13b(14)--13b(14)---13b(14)--13b(14)--13b(14)--13b(14)---|
G|---------------------------------------------------------------------------|
D|---------------------------------------------------------------------------|
A|---------------------------------------------------------------------------|
E|---------------------------------------------------------------------------|

e|---------------------------------------------------------------------------|
B|-13b(14)--13b(14)--13b(14)--13b(14)---13b(14)--13b(14)--13b(14)--13b(14)---|
G|---------------------------------------------------------------------------|
D|---------------------------------------------------------------------------|
A|---------------------------------------------------------------------------|
E|---------------------------------------------------------------------------|


Guitar 1 outro chorus (3:36)
e|---------------------------------------------------------------------------|
B|---------------------------------------------------------------------------|
G|-66666666--22222222--11111111--4-4-4-4-------------------------------------|
D|-66666666--22222222--22222222--4-4-4-4--4-4-4------------------------------|
A|-44444444------------22222222--2-2-2-2--4-4-4------------------------------|
E|----------------------------------------2-2-2------------------------------|

e|---------------------------------------------------------------------------|
B|---------------------------------------------------------------------------|
G|-66666666--22222222--11111111--4--4-4---5--5-5-----------------------------|
D|-66666666--22222222--22222222--4--4-4---5--5-5-----------------------------|
A|-44444444------------22222222--2--2-2---3--3-3-----------------------------|
E|---------------------------------------------------------------------------|

e|---------------------------------------------------------------------------|
B|---------------------------------------------------------------------------|
G|--6-6-6-6-6-6---------------2-2-2-2-2-2--4--4-4--5--5-5--------------------|
D|--6-6-6-6-6-6--4-4-4-4-4-4--2-2-2-2-2-2--4--4-4--5--5-5--------------------|
A|--4-4-4-4-4-4--4-4-4-4-4-4---------------2--2-2--3--3-3--------------------|
E|---------------2-2-2-2-2-2-------------------------------------------------|

e|---------------------------------------------------------------------------|
B|---------------------------------------------------------------------------|
G|--6-6-6-6-6-6---------------2-2-2-2-2-2--4--4-4--5--5-5--------------------|
D|--6-6-6-6-6-6--4-4-4-4-4-4--2-2-2-2-2-2--4--4-4--5--5-5--------------------|
A|--4-4-4-4-4-4--4-4-4-4-4-4---------------2--2-2--3--3-3--------------------|
E|---------------2-2-2-2-2-2-------------------------------------------------|


e|---------------------------------------------------------------------------|
B|---------------------------------------------------------------------------|
G|--6-6-6-6-6-6---------------2-2-2-2-2-2--4--4-4--5--5-5--------------------|
D|--6-6-6-6-6-6--4-4-4-4-4-4--2-2-2-2-2-2--4--4-4--5--5-5--------------------|
A|--4-4-4-4-4-4--4-4-4-4-4-4---------------2--2-2--3--3-3--------------------|
E|---------------2-2-2-2-2-2-------------------------------------------------|

e|---------------------------------------------------------------------------|
B|---------------------------------------------------------------------------|
G|--6-6-6-6-6-6---------------2-2-2-2-2-2--4--4-4--5--5-5--------------------|
D|--6-6-6-6-6-6--4-4-4-4-4-4--2-2-2-2-2-2--4--4-4--5--5-5--------------------|
A|--4-4-4-4-4-4--4-4-4-4-4-4---------------2--2-2--3--3-3--------------------|
E|---------------2-2-2-2-2-2-------------------------------------------------|


Guitar 2 outro chorus: (3:36)
e|---------------------------------------------------------------------------|
B|-5--4-4-4-4/2-2-2-----0-2-0-2-0------0---2-2-0-2-0---0---------------------|
G|--------------------------------1------------------1-----------------------|
D|---------------------------------------------------------------------------|
A|---------------------------------------------------------------------------|
E|---------------------------------------------------------------------------|

e|---------------------------------------------------------------------------|
B|-5--4-4-4-4/2-2-2-----0-2-0-2-0------0---2-2-0---7b(8)--8b(9)--------------|
G|--------------------------------1------------------------------------------|
D|---------------------------------------------------------------------------|
A|---------------------------------------------------------------------------|
E|---------------------------------------------------------------------------|

e|---------------------------------------------------------------------------|
B|-5--4-4-4-4/2-2-2-----0-2-0-2-0------0---2-2-0-2-0---12b(13)---------------|
G|--------------------------------1------------------1-----------------------|
D|---------------------------------------------------------------------------|
A|---------------------------------------------------------------------------|
E|---------------------------------------------------------------------------|

e|---------------------------------------------------------------------------|
B|-5--4-4-4-4/2-2-2-----0-2-0-2-0------0---2-2-0---7b(8)--8b(9)--------------|
G|--------------------------------1------------------------------------------|
D|---------------------------------------------------------------------------|
A|---------------------------------------------------------------------------|
E|---------------------------------------------------------------------------|

e|---------------------------------------------------------------------------|
B|------------------------------------------------1212121213131313-----------|
G|---------------------------------------------------------------------------|
D|---------------------------------------------------------------------------|
A|------11-9-11-------11-9-------------11-9----------------------------------|
E|-9-12----------9-12------12-9---9-12------12-9-----------------------------|

e|---------------------------------------------------------------------------|
B|------------------------------------------------1212121213131313-----------|
G|---------------------------------------------------------------------------|
D|---------------------------------------------------------------------------|
A|------11-9-11-------11-9-------------11-9----------------------------------|
E|-9-12----------9-12------12-9---9-12------12-9-----------------------------|


Guitar 3 outro chorus: (3:36)
e|---------------------------------------------------------------------------|
B|---------------------------------------------------------------------------|
G|-----------------------------99999999--------------------------------------|
D|-1111111111111111--77777777--99999999--9-9-9-9--4-4-4----------------------|
A|-1111111111111111--77777777--77777777--9-9-9-9--4-4-4----------------------|
E|-9-9-9-9-9-9-9-9---55555555------------7-7-7-7--2-2-2----------------------|

e|---------------------------------------------------------------------------|
B|---------------------------------------------------------------------------|
G|-----------------------------99999999--------------------------------------|
D|-1111111111111111--77777777--99999999--9---9-9---10---10-10----------------|
A|-1111111111111111--77777777--77777777--9---9-9---10---10-10----------------|
E|-9-9-9-9-9-9-9-9---55555555------------7---7-7---8----8--8-----------------|

e|---------------------------------------------------------------------------|
B|---------------------------------------------------------------------------|
G|--------------------7-7-7-7-7-7--------------------------------------------|
D|-11-11-11-11-11-11--7-7-7-7-7-7--7-7-7-7-7-7---9---9-9--10--10-10----------|
A|-11-11-11-11-11-11--9-9-9-9-9-9--7-7-7-7-7-7---9---9-9--10--10-10----------|
E|-9--9--9--9--9--9----------------5-5-5-5-5-5---7---7-7--8---8--8-----------|

e|---------------------------------------------------------------------------|
B|---------------------------------------------------------------------------|
G|--------------------7-7-7-7-7-7--------------------------------------------|
D|-11-11-11-11-11-11--7-7-7-7-7-7--7-7-7-7-7-7---9---9-9--10--10-10----------|
A|-11-11-11-11-11-11--9-9-9-9-9-9--7-7-7-7-7-7---9---9-9--10--10-10----------|
E|-9--9--9--9--9--9----------------5-5-5-5-5-5---7---7-7--8---8--8-----------|

e|---------------------------------------------------------------------------|
B|---------------------------------------------------------------------------|
G|--------------------7-7-7-7-7-7--------------------------------------------|
D|-11-11-11-11-11-11--7-7-7-7-7-7--7-7-7-7-7-7---9---9-9--10--10-10----------|
A|-11-11-11-11-11-11--9-9-9-9-9-9--7-7-7-7-7-7---9---9-9--10--10-10----------|
E|-9--9--9--9--9--9----------------5-5-5-5-5-5---7---7-7--8---8--8-----------|

e|---------------------------------------------------------------------------|
B|---------------------------------------------------------------------------|
G|--------------------7-7-7-7-7-7--------------------------------------------|
D|-11-11-11-11-11-11--7-7-7-7-7-7--7-7-7-7-7-7---9---9-9--10--10-10----------|
A|-11-11-11-11-11-11--9-9-9-9-9-9--7-7-7-7-7-7---9---9-9--10--10-10----------|
E|-9--9--9--9--9--9----------------5-5-5-5-5-5---7---7-7--8---8--8-----------|


comments
We did not receive enough feedback on this tab! Please rate:
print report bad tab
1 2 3 4 5
I want to post or [tab]
guest
You may want to rate the tab now too:
select rating
Please do not post tabs as comments. Select "correction" instead!