Oops, an error
Loading. Please wait.

Aurora Tab

ver4
ver4

Whole song

Interactive

More versions @911Tabs.com
7,465 views 18 this week
2 commentsread comments
1 2 3 4 5
excellent!
x 8
Autoscroll
+/-
esc
set tempo
stop
Contributor
Hey! There's an official Ultimate Guitar app which is ideal
for learning songs when you're away from computer. Get the app
WARNING: You are trying to view
                                    content from Ultimate-Guitar.com
                                    in an unauthorized application,
                                    which is prohibited.

                                    Please use an official Ultimate
                                    Guitar Tabs application for iPhone,
                                    iPad or Android to access legitimate
                                    chords, guitar, bass, and drum tabs
                                    from Ultimate-Guitar.com database.

                                    Type "ultimate guitar tabs" in Apple
                                    App Store's or Android Market's
                                    search to find the application.
Song:Aurora
Artist:Foo Fighters
Album:There is Nothing Left to Lose

Tabbed by ben3296(bptrules@hotmail.com)

Standard Tuning (eBGDAE)
Moderate Speed - about 125 bpm
4/4

Guitar 1 - slight distortion with 8th echoes
Guitar 2 - slight distortion with dotted 4th echoes
Guitars 3 & 4 - distortion with no echo
Guitar 5 - slight distortion with no echo


Updated on 30 Aug 2012, riff A edited slightly, thanks to jimbompaleen for spotting the error :)


Intro
-----
Guitar 1
e-|----------------|----------------|            |----------------|
B-|----------------|----------------|            |----------------|
G-|----------6---7-|----9-------6-7-|play 4      |------9---------|
D-|--7-6---9-------|7-----9---7-----|times then  |6---7---7---7-9-|
A-|0-----0-----0---|--0-----0-------|            |--7-------0-----|
E-|----------------|----------------|            |----------------|


Guitar 1 RIFF A                                             END RIFF A
e-|----------------|----------------|----------------|----------------|
B-|----------------|----------------|----------------|----------------|
G-|----------------|7-------9-7-6---|------7-9-----6-|--7-7-----------|
D-|--7---6---9---7-|--6---7---------|7-6---------9---|------7---7-7-7-|
A-|0---0---0---0---|----0---------0-|----7-----0-----|0-------0-------|
E-|----------------|----------------|----------------|----------------|



Verse
-----
Guitar 1 w/Riff A 6 times

Guitar 2
e-|7-------|--------|--------|--------|7-------|--------|--------|--------|
B-|10------|-------9|--------|--------|10------|------10|---9--10|--------|
G-|9-------|--------|-------9|--------|9-------|--------|-9---9--|--------|
D-|7-------|--------|--------|--------|7-------|--------|--------|--------|
A-|--------|--------|--------|--------|--------|--------|--------|--------|
E-|--------|--------|--------|--------|--------|--------|--------|--------|

e-|7-------|--------|-------7|--------|7-------|--------|--------|--------|
B-|10------|-------9|---10---|-10-----|10------|------10|--10--10|--------|
G-|9-------|--------|-9---9--|---9----|9-------|--------|-9---9--|-9------|
D-|7-------|--------|--------|-----7--|7-------|--------|--------|--------|
A-|--------|--------|--------|-------0|--------|--------|--------|--------|
E-|--------|--------|--------|--------|--------|--------|--------|--------|

e-|7-------|--------|---7----|--------|7-------|--------|--------|--------|
B-|10-----9|------10|----10-9|--------|10------|---10-10|---10---|---10---|
G-|9-------|-9------|-9------|-9------|9-------|-----9--|-9---9--|--9-----|
D-|7-------|---7----|--------|--------|7-------|--------|------7-|------77|
A-|--------|---0----|--------|--------|--------|--------|--------|------00|
E-|--------|--------|--------|--------|--------|--------|--------|--------|



Chorus
------
Guitar 3
e-|-------------------|----------------|----------------|
B-|10--10--10-10-10-9-|--9-9-9-9-9-7-7-|--9-------------|
G-|-------------------|----------------|----9-------9-9-|
D-|-------------------|----------------|----------------|
A-|-------------------|----------------|----------------|
E-|-------------------|----------------|----------------|
                      |                |                |play 2
Guitar 4              |                |                |times
e-|-------------------|----------------|----------------|
B-|-------------------|----------------|----------------|
G-|6---6---6--6-----6-|--6-6-6-6-4---4-|--2-2-------2-2-|
D-|7---7---7--7-----6-|--6-6-6-6-6-0-2-|--2-2-------2-2-|
A-|0---0---0--0-----0-|--0-0-0-0-0-0-0-|--0-0-------0-0-|
E-|-------------------|----------------|----------------|


Guitar 3
e-|----------------|----------------|----------------|---------------------|
B-|----------------|----------------|--------------7-|--7-7-10-10-10-10-10-|
G-|7-------------7-|--------------7-|--7-7-9---9-9---|---------------------|
D-|----------------|----------------|----------------|---------------------|
A-|----------------|----------------|----------------|---------------------|
E-|----------------|----------------|----------------|---------------------|
                   |                |                |                     |
Guitar 4           |                |                |                     |
e-|----------------|----------------|----------------|---------------------|
B-|----------------|----------------|----------------|---------------------|
G-|7-------------7-|--------------7-|--7-7-7---7-7-7-|--7-7-11-11-11-9--11-|
D-|6-------------4-|--------------6-|--6-6-7---7-7-9-|--9-7-0--0--0--0--0--|
A-|0-------------0-|--------------0-|--0-0-0---0-0-0-|--0-0-0--0--0--0--0--|
E-|----------------|----------------|----------------|---------------------|


Guitar 3
e-|-------------------|----------------|----------------|
B-|10--10--10-10-10-9-|--9-9-9-9-9-7-7-|--9-------------|
G-|-------------------|----------------|----9---9-9---7-|
D-|-------------------|----------------|--------------0-|
A-|-------------------|----------------|----------------|
E-|-------------------|----------------|----------------|
                      |                |                |
Guitar 4              |                |                |
e-|-------------------|----------------|----------------|
B-|-------------------|----------------|----------------|
G-|6---6---6--6-----6-|--6-6-6-6-4---4-|--2-2---2-2-0-7-|
D-|7---7---7--7-----6-|--6-6-6-6-6-0-2-|--2-2---2-2-0-0-|
A-|0---0---0--0-----0-|--0-0-0-0-0-0-0-|--0-0---0-0-----|
E-|-------------------|----------------|----------------|



Guitars 3 & 4
e-|----------------|----------------|----------------|----------------|
B-|--------3-5-----|----------------|--------3-5-----|----------------|
G-|--6-4-2-4-6-0---|--------------7-|--6-4-2-4-6-0---|--------------7-|
D-|--0-0-0-0-0-0-7-|--6-4-2-------0-|--0-0-0-0-0-0-7-|7-6-4-2---2-2-0-|
A-|--------------0-|--0-0-0-4-2-0---|--------------0-|0-0-0-0---0-0---|
E-|----------------|----------------|----------------|----------------|

e-|----------------|----------------|----------------|----------------|
B-|--------3-5-----|----------------|----------------|------2---0-----|
G-|--6-4-2-4-6-0---|----------------|--0-------0---2-|--0-------------|
D-|--0-0-0-0-0-0-7-|--6-4-2---------|----------------|----------------|
A-|--------------0-|--0-0-0-4-2-0-3-|----3-5---------|----0---------3-|
E-|----------------|--------------1-|----1-3-----0---|--------------1-|

e-|----------------|
B-|----------------|
G-|--0-------0-----|
D-|----------------|
A-|----3-5-----5---|
E-|----1-3-----3---|



Interlude
---------
Guitar 1
e-|----------------|----------------|----------------|
B-|----------------|----------------|----------------|
G-|----------6---7-|----9-------6-7-|------9---------|then Guitar 1 w/Riff A
D-|--7-6---9-------|7-----9---7-----|6---7---7---7-9-|
A-|0-----0-----0---|--0-----0-------|--7-------0-----|
E-|----------------|----------------|----------------|



Verse
-----
Guitar 1 w/Riff A 4 times

Guitar 2
e-|7-------|--------|--------|--------|7-------|---7----|--------|--------|
B-|10------|-------9|----9---|--------|10------|-----9--|---9----|--------|
G-|9-------|--------|-------9|--------|9-------|-------9|-------9|--------|
D-|7-------|--------|--------|--------|7-------|--------|--------|--------|
A-|--------|--------|--------|--------|--------|--------|--------|--------|
E-|--------|--------|--------|--------|--------|--------|--------|--------|

e-|7-------|--------|-------7|--------|7-------|--------|--------|--------|
B-|10------|---10--9|---10---|-10-----|10------|--------|--------|--------|
G-|9-------|--------|-9---9--|---9----|9-------|--999999|99999999|9999999-|
D-|7-------|--------|--------|-----7--|7-------|--777777|77777777|7777777-|
A-|--------|--------|--------|-------0|--------|--------|--------|-------0|
E-|--------|--------|--------|--------|--------|--------|--------|-------0|
                                         Guitar 2 tacet
                                                  Guitar 4 


Chorus
------
Guitar 3
e-|-------------------|----------------|----------------|
B-|10--10--10-10-10-9-|--9-9-9-9-9-7-7-|--9-------------|
G-|-------------------|----------------|----9-------9-9-|
D-|-------------------|----------------|----------------|
A-|-------------------|----------------|----------------|
E-|-------------------|----------------|----------------|
                      |                |                |play 2
Guitar 4              |                |                |times
e-|-------------------|----------------|----------------|
B-|-------------------|----------------|----------------|
G-|6---6---6--6-----6-|--6-6-6-6-4---4-|--2-2-------2-2-|
D-|7---7---7--7-----6-|--6-6-6-6-6-0-2-|--2-2-------2-2-|
A-|0---0---0--0-----0-|--0-0-0-0-0-0-0-|--0-0-------0-0-|
E-|-------------------|----------------|----------------|


Guitar 3
e-|----------------|----------------|----------------|---------------------|
B-|----------------|----------------|--------------7-|--7-7-10-10-10-10-10-|
G-|7-------------7-|--------------7-|--7-7-9---9-9---|---------------------|
D-|----------------|----------------|----------------|---------------------|
A-|----------------|----------------|----------------|---------------------|
E-|----------------|----------------|----------------|---------------------|
                   |                |                |                     |
Guitar 4           |                |                |                     |
e-|----------------|----------------|----------------|---------------------|
B-|----------------|----------------|----------------|---------------------|
G-|7-------------7-|--------------7-|--7-7-7---7-7-7-|--7-7-11-11-11-9--11-|
D-|6-------------4-|--------------6-|--6-6-7---7-7-9-|--9-7-0--0--0--0--0--|
A-|0-------------0-|--------------0-|--0-0-0---0-0-0-|--0-0-0--0--0--0--0--|
E-|----------------|----------------|----------------|---------------------|


Guitar 3
e-|-------------------|----------------|----------------|
B-|10--10--10-10-10-9-|--9-9-9-9-9-7-7-|--9-------------|
G-|-------------------|----------------|----9---9-9---7-|
D-|-------------------|----------------|--------------0-|
A-|-------------------|----------------|----------------|
E-|-------------------|----------------|----------------|
                      |                |                |
Guitar 4              |                |                |
e-|-------------------|----------------|----------------|
B-|-------------------|----------------|----------------|
G-|6---6---6--6-----6-|--6-6-6-6-4---4-|--2-2---2-2-0-7-|
D-|7---7---7--7-----6-|--6-6-6-6-6-0-2-|--2-2---2-2-0-0-|
A-|0---0---0--0-----0-|--0-0-0-0-0-0-0-|--0-0---0-0-----|
E-|-------------------|----------------|----------------|



Guitars 3 & 4
e-|----------------|----------------|----------------|----------------|
B-|--------3-5-----|----------------|--------3-5-----|----------------|
G-|--6-4-2-4-6-0---|--------------7-|--6-4-2-4-6-0---|--------------7-|
D-|--0-0-0-0-0-0-7-|--6-4-2-------0-|--0-0-0-0-0-0-7-|7-6-4-2---2-2-0-|
A-|--------------0-|--0-0-0-4-2-0---|--------------0-|0-0-0-0---0-0---|
E-|----------------|----------------|----------------|----------------|

e-|----------------|----------------|----------------|----------------|
B-|--------3-5-----|----------------|----------------|------2---0-----|
G-|--6-4-2-4-6-0---|----------------|--0-------0---2-|--0-------------|
D-|--0-0-0-0-0-0-7-|--6-4-2---------|----------------|----------------|
A-|--------------0-|--0-0-0-4-2-0-3-|----3-5---------|----0---------3-|
E-|----------------|--------------1-|----1-3-----0---|--------------1-|

e-|----------------|----------------|
B-|----------------|----------------|
G-|--0-------0---2-|----------------|
D-|--------------2-|--------------4-|
A-|----3-5-------0-|--4-4-4-4-2-0-4-|
E-|----1-3-----0---|--------------2-|



Bridge
------
Guitars 3 & 4
e-|------0---------|----------------|------0---------|----------------|
B-|----------0-----|----------------|------0---0-----|----------------|
G-|--2-----------2-|----------------|--------------1-|----------------|
D-|----4---------4-|--------------2-|--------------2-|----------------|
A-|----------------|--4-4-4-4-2-0-2-|--2-2-----------|--4-4-4-4-2-0---|
E-|----------------|--------------0-|--0-0-----------|--------------0-|

e-|----------------|----------------|------0---------|----------------|
B-|----------------|----------------|----------0-----|----------------|
G-|----0---------2-|--2-------------|--2-----------2-|----------------|
D-|--------------2-|----2---------4-|----4---------4-|--------------2-|
A-|3-3---3-3-5---0-|------0-4-2-0-4-|----------------|--4-4-4-4-2-0-2-|
E-|1-1---1-1-3-0---|--------------2-|----------------|--------------0-|

e-|------0---------|----------------|----------------|----------------|
B-|------0---0-----|----------------|----------------|----------------|
G-|--------------1-|----------------|----0---------2-|--2-----2-2---7-|
D-|--------------2-|----------------|--------------2-|--2---2---2---0-|
A-|--2-2-----------|--4-4-4-4-2-0---|3-3---3-3-5---0-|--0-0-----0-----|
E-|--0-0-----------|--------------0-|1-1---1-1-3-0---|------------0---|



Half-Chorus
-----------
Guitars 3 & 4
e-|----------------|----------------|----------------|----------------|
B-|--------3-5-----|----------------|--------3-5-----|----------------|
G-|--6-4-2-4-6-0---|--------------7-|--6-4-2-4-6-0---|--------------7-|
D-|--0-0-0-0-0-0-7-|--6-4-2-------0-|--0-0-0-0-0-0-7-|7-6-4-2---2-2-0-|
A-|--------------0-|--0-0-0-4-2-0---|--------------0-|0-0-0-0---0-0---|
E-|----------------|----------------|----------------|----------------|

e-|----------------|----------------|----------------|----------------|
B-|--------3-5-----|----------------|----------------|------2---0-----|
G-|--6-4-2-4-6-0---|----------------|--0-------0---2-|--0-------------|
D-|--0-0-0-0-0-0-7-|--6-4-2---------|----------------|----------------|
A-|--------------0-|--0-0-0-4-2-0-3-|----3-5---------|----0---------3-|
E-|----------------|--------------1-|----1-3-----0---|--------------1-|

e-|----------------|----------------|----------------|----------------|
B-|----------------|------2---0-----|----------------|------2---0-----|
G-|--0-------0---2-|--0-------------|--0-------0---2-|--0-------------|
D-|----------------|----------------|----------------|----------------|
A-|----3-5---------|----0---------3-|----3-5---------|----0---------3-|
E-|----1-3-----0---|--------------1-|----1-3-----0---|--------------1-|

e-|----------------|
B-|----------------|
G-|--0-------0-----|
D-|----------------|
A-|----3-5-----5---|
E-|----1-3-----3---|




Interlude
---------
Guitar 1 w/Riff A 2 times

then

Guitar 1
e-|----------------|----------------|
B-|----------------|----------------|
G-|----------------|7-------9-7-6---|
D-|--7---6---9---7-|--6---7---------|
A-|0---0---0---0---|----0---------0-|
E-|----------------|----------------|
                   |                |
Guitar 2           |                |
e-|------------7---|----------------|
B-|------------10--|----------------|
G-|------------9---|--------------9-|
D-|------------7---|----------------|
A-|----------------|----------------|
E-|----------------|----------------|

then

Guitar 1 w/Riff A 3 times

Guitar 2
e-|--------------7-|----------------|--------------7-|----------------|
B-|9-----10--------|--10----------9-|------10--------|--10----------9-|
G-|--9-------9-----|------9---------|--9-------9-----|------9---------|
D-|----7-------7---|----------7-----|----7-------7---|----------7-x---|
A-|----------------|----------------|----------------|----------------|
E-|----------------|----------------|----------------|----------------|

e-|--------------7-|----------------|--------------7-|----------------|
B-|------10--------|--10----------9-|------10--------|--10----------9-|
G-|--9-------9-----|------9---------|--9-------9-----|------9---------|
D-|----7-------7---|----------7-----|----x-------7---|----------------|
A-|----------------|----------------|----------------|----------------|
E-|----------------|----------------|----------------|----------------|

e-|--------------7-|----------------|--------------7-|----------------|
B-|------10--------|--10----------9-|------10--------|----------------|
G-|--9-------9-----|------9---------|--9-------9-----|----------------|
D-|----7-------7---|----------7-----|----7-------7---|----------------|
A-|----------------|----------------|----------------|----------------|
E-|----------------|----------------|----------------|----------------|

then

Guitar 1
e-|------------------|
B-|------------------|
G-|----9-------------|
D-|------9-9-9-11-12-|
A-|0-0-----0-0-0--0--|
E-|------------------|
                     |
Guitar 4             |
e-|7-----------------|
B-|10----------------|
G-|9-----------------|
D-|7-----------------|
A-|------------------|
E-|---------------15\|



Outro
-----
Guitars 3 & 4
e-|----------------|----------------|----------------|----------------|
B-|--2-2-----2---0-|0-----0---0-0-2-|2-2-2---2-2---0-|0---0-0-----0-0-|
G-|--2-2-----2---2-|2-----2---2-2-2-|2-2-2---2-2---2-|2---2-2-----2-2-|play 2
D-|--2-2-----2---2-|2-----2---2-2-2-|2-2-2---2-2---2-|2---2-2-----2-2-|times
A-|0-0-0---0-0---0-|0---0-0---0-0-0-|0-0-0---0-0---0-|0---0-0---0-0-0-|
E-|0---------------|----------------|----------------|----------------|



then

Guitar 1 w/Riff A 4 times

Guitar 3 RIFF B           END RIFF B
e-|----------------|----------------|
B-|----------------|----------------|
G-|----------------|----------------| play 2
D-|7-7-7-7-7-7-7-7-|7-7-7-7-7-7-7-66| times
A-|0-0-0-0-0-0-0-0-|0-0-0-0-0-0-0-00|
E-|----------------|----------------|


Guitar 4
e-|----------------|----------------|----------------|----------------|
B-|----10----12----|--9---10----7---|--9-----5---5-7-|----9---9-10----|
G-|----------------|----------------|----------------|----------------|
D-|----------------|----------------|----------------|----------------|
A-|----------------|----------------|----------------|----------------|
E-|----------------|----------------|----------------|----------------|

e-|----------------|----------------|----------------|----------------|
B-|12------9---10--|--12----14----12|----10----12----|7----10---------|
G-|----------------|----------------|----------------|----------------|
D-|----------------|----------------|----------------|----------------|
A-|----------------|----------------|----------------|----------------|
E-|----------------|----------------|----------------|----------------|


then

Guitar 3 w/Riff B 4 times
Guitar 5 w/RIff A 2 times

and Guitar 2
e-|----------------|----------------|
B-|10--10--10--10--|10--10--10--10--|
G-|----------------|----------------|play 4
D-|----------------|----------------|times
A-|----------------|----------------|
E-|----------------|----------------|


Hope this helps to learn the song
Sorry if it's a bit complicated in places - let me know if there's a problem
Please comment and rate
Apologies for any mistakes - correct me although I think it's all correct
Thanks :)
comments
print report bad tab
2 comments total.
+1 reply
jimbompaleen wrote on February 13 2012, 07:08 am

Amazing tab dude! Sounds spot on, though should the 8 in Riff A and the interlude be a 9 maybe?

0 reply
ben3296 wrote on August 30 2012, 05:34 pm

yes, thanks for spotting that :)

I want to post or [tab]
guest
You may want to rate the tab now too:
select rating
Please do not post tabs as comments. Select "correction" instead!