Oops, an error
Loading. Please wait.

Echos Silence Patience And Grace Tab

68,638 views 48 this week
6 commentsread comments
1 2 3 4 5
excellent!
x 15
Autoscroll
+/-
esc
set tempo
stop
Contributor
Difficulty
intermediate
Hey! There's an official Ultimate Guitar app which is ideal
for learning songs when you're away from computer. Get the app
WARNING: You are trying to view
                                    content from Ultimate-Guitar.com
                                    in an unauthorized application,
                                    which is prohibited.

                                    Please use an official Ultimate
                                    Guitar Tabs application for iPhone,
                                    iPad or Android to access legitimate
                                    chords, guitar, bass, and drum tabs
                                    from Ultimate-Guitar.com database.

                                    Type "ultimate guitar tabs" in Apple
                                    App Store's or Android Market's
                                    search to find the application.
this is not my work, i take no credit for the hard work that went in to these
tabs, i compiled them for the simplicity of having it all together.
===============================================================================
  	 Pretender Tab by Foo Fighters, www.Ultimate-Guitar.Com

Chris Shifflet - Lead Guitar

     E   E  E   E  E   E  E   E     E  E   E  E   E  E   E  E
E||----------------7-------------|---------0------0------0-----|
B||------------10-----10---------|--------10-----10-----10-----|
G||---------9-------------9------|---------9------9------9-----|
D||-----10-------------------10--|--------10-----10-----10-----|
A||--0---------------------------|--0----------------0------9--|
E||------------------------------|-----7------8----------------|


    E    E  E   Q    E   E  E     E   E  E   E  E   E  E   E
-------------------------------|----------------0-------------|
---------------10--------------|------------10-----10---------|
------------9------------------|---------9-------------9------|
--(10)--10---------------------|-----10-------------------10--| x3
---------------------9b--9--8--|--L---------------------------|
-------------------------------|------------------------------|

on the 3rd time let the last 0 ring amnd play nothing else (when the snare starts)


  S S S S S S S S S S S S S S S S
--0-0-2-0-3-0-5-0-0-0-2-0-3-0-5-0-|
--5-5-5-5-5-5-5-5-5-5-5-5-5-5-5-5-|
----------------------------------| x27
----------------------------------|
----------------------------------|
----------------------------------|

one time of the above riff then...

  S S S S S S S S S S S S S S S S
--0-0---------0-0-0-0-------------|
--1-1---------1-1-1-1-------------|
--2-2---------2-2-2-2-------------|
--2-2---------2-2-2-2-------------|
--0-0---------0-0-0-0-------------|
----------------------------------|


  S S S S S S S S S S S S S S S S
--0-0---------0-0-0-0-------------|
--1-1---------1-1-1-1-------------|
--2-2---------2-2-2-2-------------|
--2-2---------2-2-2-2-------------|
--0-0---------0-0-0-0-------------|
----------------------------------|


  S S S S S S S S S S S S S S S S
----------------------------------|
--3-3---------3-3-3-3-------------|
--2-2---------2-2-2-2-------------|
--0-0---------0-0-0-0-------------|
--0-0---------0-0-0-0-------------|
--2-2---------2-2-2-2-------------|


  S S S S S S S S S S S S S S S S
----------------------------------|
--1-1---------1-1-1-1-------------|
--0-0---------0-0-0-0-------------|
--3-3---------3-3-3-3-------------|
--3-3---------3-3-3-3-------------|
----------------------------------|


  S S S S S S S S S S S S S S S S
--0-0---------0-0-0-0-------------|
--1-1---------1-1-1-1-------------|
--2-2---------2-2-2-2-------------|
--2-2---------2-2-2-2-------------|
--0-0---------0-0-0-0-------------|
----------------------------------|


  S S S S S S S S S S S S S S S S
--0-0---------0-0-0-0-------------|
--1-1---------1-1-1-1-------------|
--2-2---------2-2-2-2-------------|
--2-2---------2-2-2-2-------------|
--0-0---------0-0-0-0-------------|
----------------------------------|


  S S S S S S S S S S S S S S S S
----------------------------------|
--3-3---------3-3-3-3-------------|
--2-2---------2-2-2-2-------------|
--0-0---------0-0-0-0-------------|
--0-0---------0-0-0-0-------------|
--2-2---------2-2-2-2-------------|


  S S S S S S S S S S S S S S E
---------------------------------|
--1-1---------1-1-1-1------------|
--0-0---------0-0-0-0------------|
--3-3---------3-3-3-3------------|
--3-3---------3-3-3-3------------|
--------------------------1-0-3--|


  S S S S S S S S S S S S S S S S
--0-0---------0-0-0-0-------------|
--1-1---------1-1-1-1-------------|
--2-2---------2-2-2-2-------------|
--2-2---------2-2-2-2-------------|
--0-0---------0-0-0-0-------------|
----------------------------------|


  S S S S S S S S S S S S S S S S
--0-0---------0-0-0-0-------------|
--1-1---------1-1-1-1-------------|
--2-2---------2-2-2-2-------------|
--2-2---------2-2-2-2-------------|
--0-0---------0-0-0-0-------------|
----------------------------------|


  S S S S S S S S S S S S S S S S
----------------------------------|
--3-3---------3-3-3-3-------------|
--2-2---------2-2-2-2-------------|
--0-0---------0-0-0-0-------------|
--0-0---------0-0-0-0-------------|
--2-2---------2-2-2-2-------------|


  S S S S S S S S S S S S S S E
---------------------------------|
--1-1---------1-1-1-1------------|
--0-0---------0-0-0-0------------|
--3-3---------3-3-3-3------------|
--3-3---------3-3-3-3------------|
--------------------------1-0-3--|


      PM PM PM PM         PM PM PM PM PM PM
  S S S  S  S  S  S S S S S  S  S  S  S  S
--0-0-------------0-0-0-0-------------------|
--1-1-------------1-1-1-1-------------------|
--2-2-2--2--2--2--2-2-2-2-2--2--2--2--2--2--|
--2-2-2--2--2--2--2-2-2-2-2--2--2--2--2--2--|
--0-0-0--0--0--0--0-0-0-0-0--0--0--0--0--0--|
--------------------------------------------|


      PM PM PM PM         PM PM PM PM PM PM
  S S S  S  S  S  S S S S S  S  S  S  S  S
--0-0-------------0-0-0-0-------------------|
--1-1-------------1-1-1-1-------------------|
--2-2-2--2--2--2--2-2-2-2-2--2--2--2--2--2--|
--2-2-2--2--2--2--2-2-2-2-2--2--2--2--2--2--|
--0-0-0--0--0--0--0-0-0-0-0--0--0--0--0--0--|
--------------------------------------------|


      PM PM PM PM         PM PM PM PM PM PM
  S S S  S  S  S  S S S S S  S  S  S  S  S
--------------------------------------------|
--3-3-------------3-3-3-3-------------------|
--2-2-------------2-2-2-2-------------------|
--0-0-------------0-0-0-0-------------------|
--0-0-------------0-0-0-0-------------------|
--2-2-2--2--2--2--2-2-2-2-2--2--2--2--2--2--|


      PM PM PM PM         PM PM PM PM PM PM
  S S S  S  S  S  S S S S S  S  S  S  S  S
--------------------------------------------|
--1-1-------------1-1-1-1-------------------|
--0-0-------------0-0-0-0-------------------|
--3-3-------------3-3-3-3-------------------|
--3-3-3--3--3--3--3-3-3-3-3--3--3--3--3--3--|
------1--1--1--1----------1--1--1--1--1--1--|


  S S S S S S S S S S S S S S S S
----------------------------------|
--3-3-3-3-3-3-3-3-3-3-3-3-3-3-3-3-|
--2-2-2-2-2-2-2-2-2-2-2-2-2-2-2-2-|
--0-0-0-0-0-0-0-0-0-0-0-0-0-0-0-0-|
--0-0-0-0-0-0-0-0-0-0-0-0-0-0-0-0-|
--2-2-2-2-2-2-2-2-2-2-2-2-2-2-2-2-|

   S S S S S S S S  S  S  S  S  S  S  S  S
|------------------------------------------|
|------------------------------------------|
|--7-7-7-7-9-9-9-9-11-11-11-11-12-12-12-12-| Shifflet over this last bit.
|--x-x-x-x-x-x-x-x--x--x--x--x--x--x--x--x-| This is also repeated over the
|--5-5-5-5-7-7-7-7--9--9--9--9-10-10-10-10-| bit between the 2nd chorus and
|------------------------------------------| the bridge

Shifflet Chorus

   S  S  S  S  S  S  S  S  S  S  S  S  S  S
---0--0--0--0--0--0--0--0--0--0--0--0--0--0---|
--10-10-10-10-10-10-10-10-10-10-10-10-10-10-1-|
---9--9--9--9--9--9--9--9--9--9--9--9--9--9---|
--10-10-10-10-10-10-10-10-10-10-10-10-10-10-1-|
----------------------------------------------|
----------------------------------------------|


   S  S  S  S  S  S  S  S  S  S  S  S  S  S
---0--0--0--0--0--0--0--0--0--0--0--0--0--0---|
--10-10-10-10-10-10-10-10-10-10-10-10-10-10-1-|
---9--9--9--9--9--9--9--9--9--9--9--9--9--9---|
--10-10-10-10-10-10-10-10-10-10-10-10-10-10-1-|
---0--0--x--x--x--x--x--x--x--x--0--0--0--0---|
---------7--7--7--7--8--8--8--8---------------|


  E   S  S  S  S  S  S  S  S  S  S  S  S  S
--L---0--0--0--0--0--0--0--0--0--0--0--0--0---|
--L--10-10-10-10-10-10-10-10-10-10-10-10-10-1-|
--L---9--9--9--9--9--9--9--9--9--9--9--9--9---|
--L--10-10-10-10-10-10-10-10-10-10-10-10-10-1-|
--L---9--9--9--9--9--9--9--9--9--9--9--9--9---|
----------------------------------------------|


   S  S  S  S  S  S  S  S  S  S  S  S  S  S
---0--0--0--0--0--0--0--0--0--0--0--0--0--0---|
--10-10-10-10-10-10-10-10-10-10-10-10-10-10-1-|
---9--9--9--9--9--9--9--9--9--9--9--9--9--9---|
--10-10-10-10-10-10-10-10-10-10-10-10-10-10-1-|
---8--8--8--8--8--8--8--8--8--8--8--8--8--8---|
----------------------------------------------|


Grohl Chorus

  S S S S S S S S S S S S S S S S
--0-0-0-0-0-0-0-0-0-0-0-0-0-0-0-0-|
--1-1-1-1-1-1-1-1-1-1-1-1-1-1-1-1-|
--2-2-2-2-2-2-2-2-2-2-2-2-2-2-2-2-|
--2-2-2-2-2-2-2-2-2-2-2-2-2-2-2-2-|
--0-0-0-0-0-0-0-0-0-0-0-0-0-0-0-0-|
----------------------------------|


  S S S S S S S S S S S S S S E
--0-0-0-0-0-0-0-0-0-0-0-0-0-0----|
--1-1-1-1-1-1-1-1-1-1-1-1-1-1-3--|
--2-2-2-2-2-2-2-2-2-2-2-2-2-2-2--|
--2-2-2-2-2-2-2-2-2-2-2-2-2-2-0--|
--0-0-0-0-0-0-0-0-0-0-0-0-0-0-0--|
------------------------------2--|


  E  S S S S S S S S S S S S S S
---------------------------------|
--L--3-3-3-3-3-3-3-3-3-3-3-3-3-3-|
--L--2-2-2-2-2-2-2-2-2-2-2-2-2-2-|
--L--0-0-0-0-0-0-0-0-0-0-0-0-0-0-|
--L--0-0-0-0-0-0-0-0-0-0-0-0-0-0-|
--L--2-2-2-2-2-2-2-2-2-2-2-2-2-2-|


  S S S S S S S S S S S S S S S S
----------------------------------|
--1-1-1-1-1-1-1-1-1-1-1-1-1-1-1-1-|
--0-0-0-0-0-0-0-0-0-0-0-0-0-0-0-0-|
--3-3-3-3-3-3-3-3-3-3-3-3-3-3-3-3-|
--3-3-3-3-3-3-3-3-3-3-3-3-3-3-3-3-|
----------------------------------|

Shifflet

  S S S S S S S E  S S S S S E
--------------------------------|
--------------------------------|
--------------------------------|
--2-2-4---5---7-2--2-4---5---4--|
--0-0-0-0-0-0-0-0--0-0-0-0-0-0--|
--------------------------------|


Then same as beggining section but half the umber before going into the PMed bits.


Chorus agen but afor mentioned link bit between the end and the bridge

Shifflet

  S S S S S S S E  S S S S S E     S S S S S S S E  S S S S S E
--------------------------------|--------------------------------|
--------------------------------|--------------------------------|
--------------------------------|--------------------------------|
--2-2-4---5---7-2--2-4---5---4--|--2-2-4---5---7-2--2-4---5---4--|
--0-0-0-0-0-0-0-0--0-0-0-0-0-0--|--0-0-0-0-0-0-0-0--0-0-0-0-0-0--|
--------------------------------|--------------------------------|


  S S S S S S S E  S S S S S E      S  S S S S S S  E   S S S S S S  S
--------------------------------|--------------------------------------|
--------------------------------|--------------------------------------|
--------------------------------|--------------------------------------|
--2-2-4---5---7-2--2-4---5---4--|--10-10-9---7-5---10--10-9---7-5---10-|
--0-0-0-0-0-0-0-0--0-0-0-0-0-0--|---0--0-0-0-0-0-0--0---0-0-0-0-0-0--0-|
--------------------------------|--------------------------------------|


 S  S S S S S S  E   S S S S S S  S
--------------------------------------|
--------------------------------------|
--------------------------------------|
--10-10-9---7-5---10--10-9---7-5---10-|
---0--0-0-0-0-0-0--0---0-0-0-0-0-0--0-|
--------------------------------------|


  S  S  S S S  S S  E   S  S S S  S S  S
-----------------------------------------|
-----------------------------------------|
-----------------------------------------|
--L-12-10---9-10---12--12-10---9-10---12-|
--0--0--0-0-0--0-0--0---0--0-0-0--0-0--0-|
-----------------------------------------|

                                             TP         TP
  S  S  S S S  S S  E   S  S S S  S S  S     H          H
-----------------------------------------|------------------------|
-----------------------------------------|------------------------|
-----------------------------------------|------------------------|
--L-12-10---9-10---12--12-10---9-10---12-|--13b--------13b--------|
--0--0--0-0-0--0-0--0---0--0-0-0--0-0--0-|---0----------0---------|
-----------------------------------------|------------------------|


   TP         TP
   H          H            S S S S S S S E  S S S S S E
------------------------|--------------------------------|
------------------------|--------------------------------|
------------------------|--------------------------------|
--13b--------13b--------|--2-2-4---5---7-2--2-4---5---4--|
---0----------0---------|--0-0-0-0-0-0-0-0--0-0-0-0-0-0--|
------------------------|--------------------------------|

Grohl Just strums the open A chord with a flager once at the start of every bar until
13b (TPH) which is played by grohl and shifflet plays the following

  E.    E    E   S  E.    E    E.      E.    E    E   S  E.    E    E.
------------------------------------|------------------------------------|
--------8~--10~-----------8~--10~---|--------8~--10~-----------8~--10~---|
--7b~------------7~-7b~-------------|--7b~------------7~-7b~-------------|x2
------------------------------------|------------------------------------|
------------------------------------|------------------------------------|
------------------------------------|------------------------------------|

     E   E  E   E  E   E  E   E     E  E   E  E   E  E   E  E
E||----------------7-------------|---------0------0------0-----|
B||------------10-----10---------|--------10-----10-----10-----|
G||---------9-------------9------|---------9------9------9-----|
D||-----10-------------------10--|--------10-----10-----10-----|
A||--0---------------------------|--0----------------0------9--|
E||------------------------------|-----7------8----------------|


    E    E  E   Q    E   E  E     E   E  E   E  E   E  E   E
-------------------------------|----------------0-------------|
---------------10--------------|------------10-----10---------|
------------9------------------|---------9-------------9------|
--(10)--10---------------------|-----10-------------------10--|
---------------------9b--9--8--|--L---------------------------|
-------------------------------|------------------------------|

chorus again x2

the second time round of the chorus shifflet changes to this lead. This is how it would 
done live with 2 guitars. On the recording the origonal riff would continue while this 
on top of it.

  S S S S S S S S S S S S S S S S
----------------------------------|
----------------------------------|
--9-9-9-9-9-9-9-9-9-9-9-9-9-9-9-9-|
--x-x-x-x-x-x-x-x-x-x-x-x-x-x-x-x-|
--7-7-7-7-7-7-7-7-7-7-7-7-7-7-7-7-|
----------------------------------|


  S S  S  S  S  S  S  S  S  S S S S S  E
------------------------------------------|
------------------------------------------|
--9-9-11-11-11-11-12-12-12-12-9-9-9-9-11--|
--x-x--x--x--x--x--x--x--x--x-x-x-x-x--x--|
--7-7--9--9--9--9-10-10-10-10-7-7-7-7--9--|
------------------------------------------|

  E   S  S  S  S  S  S  S  S  S  S  S  S  S
----------------------------------------------|
----------------------------------------------|
--L--11-11-11-11-11-11-11-11--9--9-11-11-12-1-|
------x--x--x--x--x--x--x--x--x--x--x--x--x---|
--L---9--9--9--9--9--9--9--9--7--7--9--9-10-1-|
----------------------------------------------|


   S  S  S  S  S  S  S  S  S  S  S  S  S  S
----------------------------------------------|
----------------------------------------------|
--12-12-12-12-12-12-12-12-12-12-12-12-12-12-1-|
---x--x--x--x--x--x--x--x--x--x--x--x--x--x---|
--10-10-10-10-10-10-10-10-10-10-10-10-10-10-1-|
----------------------------------------------|

The link section again


Grohl plays this on the outro

  S S S S S S S S S S S S S S S S
----------------------------------|
----------------------------------|
----------------------------------| x3
--7-7-7-7-7-7-7-7-7-7-7-7-7-7-7-7-|
--7-7-7-7-7-7-7-7-7-7-7-7-7-7-7-7-|
--5-5-5-5-5-5-5-5-5-5-5-5-5-5-5-5-|

  S S S S S S S S S S S S S S S S
----------------------------------||
----------------------------------||
----------------------------------||
--7-7---------7-7-7-7-------------||
--7-7---------7-7-7-7-------------||
--5-5---------5-5-5-5-------------||

 and shifflet plays this

S S S S S S S E  S S S S S E
--------------------------------|
--------------------------------|
--------------------------------|
--2-2-4---5---7-2--2-4---5---4--|
--0-0-0-0-0-0-0-0--0-0-0-0-0-0--|
--------------------------------|


  S S S S S S S E  S S S S S E      S  S S S S S S  E   S S S S S E
--------------------------------|------------------------------------|
--------------------------------|------------------------------------|
--------------------------------|------------------------------------|
--2-2-4---5---7-2--2-4---5---4--|--10-10-9---7-5---10--10-9---7-5----|
--0-0-0-0-0-0-0-0--0-0-0-0-0-0--|---0--0-0-0-0-0-0--0---0-0-0-0-0-0--|
--------------------------------|------------------------------------|


  S S S S S S S S S S S S S S S S
--5-5---------5-5-5-5-------------||
--5-5---------5-5-5-5-------------||
--x-x---------x-x-x-x-------------||
--7-7---------7-7-7-7-------------||
--7-7---------7-7-7-7-------------||
--5-5---------5-5-5-5-------------||


Duration Legend
---------------
W - whole
H - half
Q - quarter
E - 8th
S - 16th
T - 32nd
X - 64th
. - note dotted
|-n-|  - n-tuplets


Tablature Legend
----------------
L - tied note
x - dead note
g - grace note
(n) - ghost note
> - accentuded note
NH - natural harmonic
AH - artificial harmonic
TH - tapped harmonic
SH - semi harmonic
PH - pitch harmonic
h - hammer on
p - pull off
b - bend
br - bendRelease
pb - preBend
pbr - preBendRelease
brb - bendReleaseBend
\n/ - tremolo bar dip
\n - tremolo bar dive
-/n - tremolo bar Release up
/n\ - tremolo bar inverted dip
/n - tremolo bar return
-\n - tremolo bar Release down
S - shift slide
s - legato slide
/ -  slide into from below or out of upwards
\ -  slide into from above or out of downwards
~ - vibrato
W - wide vibrato
tr - trill
TP - tremolo picking
T - tapping
S - slap
P - pop
< - fade in
^ - brush up
v - brush down


pretty sure thats all correct of not then call me up on it and ill change it. Enjoy peeps!!!
=============================================================================
-------------------------------------------------------------------------------
			     LET IT DIE - Foo Fighters
-------------------------------------------------------------------------------
Tabbed by: Jordan Greczkowski
Email: jgsox33@sbcglobal.net
Tuning: Standard

UPDATED
Alright.
I figured out the rest, and redid the chorus AND bridge CORRECTLY! SO,
Here it is :)


-INTRO- x12
e||----8-------------------5------||
B||------6-------------------3----||
G||--------0---0---0---0-------0--|| 
D||--8-----------7---5---5--------|| 
A||----------8--------------------|| 
E||-------------------------------||

-CHORUS-
e||----8------------------------------------------------------------------------||
B||------6-------------8----------------11-----------------------8-----8--------||
G||--------0---0---0-----0---0----0--------0----0----0-----0-------0-----0---0--||
D||--8-----------7---------9---10----13------13---------12----10-----9-----9----||
A||----------8-------10----------------------------13---------------------------||
E||-----------------------------------------------------------------------------||

e||-----------------------------------------------------------------------------||
B||----6---------------8----------------11-----------------------8-----8--------||
G||------0-----0---0-----0---0----0--------0----0----0-----0-------0-----0---0--||
D||--8-----8-----7---------9---10----13------13---------12----10-----9-----9----||
A||----------8-------10----------------------------13---------------------------||
E||-----------------------------------------------------------------------------||

-INTRO- x12
e||----8-------------------5------||
B||------6-------------------3----||
G||--------0---0---0---0-------0--|| 
D||--8-----------7---5---5--------|| 
A||----------8--------------------|| 
E||-------------------------------||

-CHORUS-
e||----8------------------------------------------------------------------------||
B||------6-------------8----------------11-----------------------8-----8--------||
G||--------0---0---0-----0---0----0--------0----0----0-----0-------0-----0---0--||
D||--8-----------7---------9---10----13------13---------12----10-----9-----9----||
A||----------8-------10----------------------------13---------------------------||
E||-----------------------------------------------------------------------------||

e||-----------------------------------------------------------------------------||
B||----6---------------8----------------11-----------------------8-----8--------||
G||------0-----0---0-----0---0----0--------0----0----0-----0-------0-----0---0--||
D||--8-----8-----7---------9---10----13------13---------12----10-----9-----9----||
A||----------8-------10----------------------------13---------------------------||
E||-----------------------------------------------------------------------------||


Immediately after chorus, play:
e||-----------------------------------------||
B||-----------------------------------------||
G||-----------------------------------------|| 
D||--5-5-5---------------5------------------|| 
A||--5-5-5---------------5------------------|| 
E||--3-3-3-3-3-3-3-3-3-3-3-3-3-3-3-3-3-3-3--||

e||-----------------------------------||
B||-----------------------------------||
G||-----------------------------------|| 
D||----------------------------5-5-5--|| 
A||----------------------------5-5-5--|| 
E||--3-3-3-3-3-3-3-3-3-3-3-3-3-3-3-3--||

e||-----------------------------------||
B||-----------------------------------||
G||-----------------------------------|| 
D||--------------------------------5--|| 
A||--------------------------------5--|| 
E||--3-3-3-3-3-3-3-3-3-3-3-3-3-3-3-3--||

e||-------------------------||
B||-------------------------||
G||-------------------------|| 
D||-------------------------|| 
A||-------------------------|| 
E||--3-3-3-3-3-3-3-3-3-3-3--||


-BRIDGE- x3
e||----------6-------------8---------------3-------------5------||
B||----4-------4-------6-----6-------1-------1-------3-----3----||
G||------0-------0-------0-------------0-------0-------0--------|| 
D||--------5-------------------7---------2-------------------4--|| 
A||--6---------------8-------------3---------------5------------|| 
E||-------------------------------------------------------------||

Then this
e||----------6-------------8---8--||
B||----4-------4-------6-----6----||
G||------0-------0-------0--------|| 
D||--------5----------------------|| 
A||--6---------------8------------|| 
E||-------------------------------||

-BREAKDOWN-
e||-------------------------------------------------------------------------------||
B||----6--------------------------------------------------------------------------||
G||------0-----0---0----0-0-0---0-0-0--0--0--0--0--0--0-0-0-0--0-0--0--0--0--0-0--|| 
D||--8-----8-----7------5-5-5---9-0-10-0--13-13-13-13-0-8-0-12-0-10-10-10-12-0-9--|| 
A||----------8--------------------------------------------------------------------|| 
E||-------------------------------------------------------------------------------||
                        ^Electric comes in here^

And follow up with this x3
e||-----------------------------------------------------------------------------||
B||-----------------------------------------------------------------------------||
G||--0-0-0-0-0-0-0-0--0-0-0---0-0-0--0--0--0--0--0--0-0-0-0--0-0--0--0--0--0-0--|| 
D||--8-8-8-0-3-0-7-0--5-5-5---9-0-10-0--13-13-13-13-0-8-0-12-0-10-10-10-12-0-9--|| 
A||-----------------------------------------------------------------------------|| 
E||-----------------------------------------------------------------------------||

-FINAL CHORUS-
e||------------------------------------||
B||------------------------------------||
G||--8-------10-------5--------7-------|| 
D||--8-------10-------5--------7-------|| 
A||--6--x8---8---x8---3---x8---5---x8--|| 
E||--6-------8--------3--------5-------|| 

e||------------------------------------||
B||------------------------------------||
G||--8-------10-------5--------7-------|| 
D||--8-------10-------5--------7-------|| 
A||--6--x8---8---x8---3---x8---5---x8--|| 
E||--6-------8--------3--------5-------|| 
e||------------------------------------||

B||------------------------------------||
G||--8-------10-------5--------7-------|| 
D||--8-------10-------5--------7-------|| 
A||--6--x8---8---x8---3---x8---5---x8--|| 
E||--6-------8--------3--------5-------|| 

e||------------------||
B||------------------||
G||--8-------10------|| 
D||--8-------10------|| 
A||--6--x8---8---x8--|| 
E||--6-------8-------|| 

Then it's this x3
e||-----------------------------------------------------------------------------||
B||-----------------------------------------------------------------------------||
G||--0-0-0-0-0-0-0-0--0-0-0---0-0-0--0--0--0--0--0--0-0-0-0--0-0--0--0--0--0-0--|| 
D||--8-8-8-0-3-0-7-0--5-5-5---9-0-10-0--13-13-13-13-0-8-0-12-0-10-10-10-12-0-9--|| 
A||-----------------------------------------------------------------------------|| 
E||-----------------------------------------------------------------------------||

And it ends with
e||-----------------||
B||-----------------||
G||--0-0-0-0-0-0-0--|| 
D||--8-8-8-0-3-0-7--|| 
A||-----------------|| 
E||-----------------||

That's it! Good luck and have fun. 
=============================================================================
  	 Erasereplace Tab by Foo Fighters, www.Ultimate-Guitar.Com

Standard Tuning
This is somewhat confusing with 2 guitars, but it's not
too hard to figure it out.
2 GUITARS

--INTRO--
--Guitar 1--
e||--------------------------------------------------||
B||-----------13--10b-------------------11--8b-------||
G||-------------------10-----------------------8-----|| 
D||-----10/13---------------------10/13--------------|| 
A||--11------------------11----12----------------10--|| 
E||--------------------------------------------------||

THEN

--Guitar 1--
e||--------------------------------------------------||
B||-----------13--10b-------------------11--8b-------||
G||-------------------10-----------------------8-----|| 
D||-----10/13---------------------10/13--------------|| 
A||--11------------------11----12----------------10--|| 
E||--------------------------------------------------||
--Guitar 2--
e||------------------------------||
B||------------------------------||
G||---------3------5------8------|| 
D||--6------3------5------8------|| 
A||--6--x8--1--x8--3--x8--6--x8--|| 
E||--4------1------3------6------||


--VERSE--
--Guitar 1--
e||-----------||
B||-----------||
G||-----------|| 
D||--8-8-8-8--|| x176! 
A||-----------|| 
E||-----------||
--Guitar 2--
e||------------------------||
B||------------------------||
G||--8---------5------9-X--|| 
D||--8--x5--8--5--x5--9-X--|| x6
A||--6------8--3------7-X--|| 
E||---------6--------------||

--Guitar 2--
e||----------------------------||
B||----------------------------||
G||--8------------5------9-----|| 
D||--8-x5--8------5-x10--9-x5--|| x3
A||--6-----8-x10--3------7-----|| 
E||--------6-------------------||

--Guitar 2--
e||------------------||
B||------------------||
G||--8------------5--|| 
D||--8-x5--8------5--|| 
A||--6-----8-x10--3--|| 
E||--------6---------||


--CHORUS--
--Both Guitars--
e||------------------------------||
B||------------------------------||
G||---------3------5------8------|| 
D||--6------3------5------8------|| x4
A||--6--x8--1--x8--3--x8--6--x8--|| 
E||--4------1------3------6------||

then Repeat --VERSE--
then Repeat --CHORUS--

THEN
--Guitar 1-- PLAY THIS 3 TIMES
e||------------------------------------------------------------------------||
B||------------------------------------------------------------------------||
G||---------------------------------------9-x8-----------------------------|| 
D||--10-x15---12--12---13-x8--12-12-10-10------10-10-10-12-12-12-7-x16-----||  
A||------------------------------------------------------------------------|| 
E||------------------------------------------------------------------------||
--Guitar 2-- Very low volume
e||-----------||
B||-----------||
G||------0----|| 
D||-----------|| x24
A||--3-5------|| 
E||-----------||

THEN
--Guitar 1--
e||--------------------------------------------------||
B||-----------13--10b-------------------11--8b-------||
G||-------------------10-----------------------8-----|| 
D||-----10/13---------------------10/13--------------|| x2
A||--11------------------11----12----------------10--|| 
E||--------------------------------------------------||
--Guitar 2-- Very low volume
e||-----------||
B||-----------||
G||------0----|| 
D||-----------|| x8
A||--3-5------|| 
E||-----------||

THEN
--Guitar 1--
e||------------------------------||
B||------------------------------||
G||---------3------5------8------|| 
D||--6------3------5------8------|| x2
A||--6--x8--1--x8--3--x8--6--x8--|| 
E||--4------1------3------6------||
--Guitar 2-- 
e||------||
B||------||
G||------|| 
D||--10--|| x32
A||------|| 
E||------||

--Guitar 1--
e||------------------------------||
B||------------------------------||
G||---------3------5------8------|| 
D||--6------3------5------8------|| x4
A||--6--x8--1--x8--3--x8--6--x8--|| 
E||--4------1------3------6------||
--Guitar 2--
e||----------------------------------------------------||
B||-------------13--10b-------------------11--8b-------||
G||---------------------10-----------------------8-----|| 
D||-------10/13---------------------10/13--------------|| x1
A||-10-11------------------11----12----------------10--|| 
E||----------------------------------------------------||

--Guitar 2-- 
e||------||
B||------||
G||------|| 
D||--10--|| x32
A||------|| 
E||------||

THEN
--Guitar 1--
e||------------------------------||
B||------------------------------||
G||------------------------------|| 
D||--13-x8--15-x8--17-x8--15-x8--|| 
A||------------------------------|| 
E||------------------------------||

--OUTRO--
--Guitar 1-- 
e||---------------||
B||---------------||
G||--17b-17-17-17-|| 
D||---------------|| x8
A||---------------|| 
E||---------------||

--Guitar 2--
e||------------------------------||
B||------------------------------||
G||---------3------5------8------|| 
D||--6------3------5------8------|| x4
A||--6--x8--1--x8--3--x8--6--x8--|| 
E||--4------1------3------6------||

--Guitar 2--
e||------------------------------------------||
B||------------------------------------------||
G||--8---------5------9-X----8--------5------|| 
D||--8--x5--8--5--x5--9-X----8--x5-8--5--x5--|| 
A||--6------8--3------7-X----6-----8--3------|| 
E||---------6----------------------6---------||

============================================================================
  	 Long Road To Ruin Tab by Foo Fighters, www.Ultimate-Guitar.Com

Chords:
C: 332010
F: 133211
Am: x02210
Gsus4/B: x20030
D: xx0232
Gsus4: x20013
Am7/G: x02013
Cadd9: x32013
Am7: x02010

---------------------------------------------------------
Listen to the song for strumming patterns.  I didn't write every little thing out note 
note because if you wanna learn the tune, it's quite simple.  ENJOY!
---------------------------------------------------------

C
Hey now don't make a sound
C                                 F
Say hey have you heard the news today
             F
One flag was taken down
         F                C
To raise another in its place
C
A heavy cross you bear
C                           F
A stubborn heart remains unchanged
F
No harm, no life, no love
F
No stranger singing in your name

Am        Gsus4/B
Maybe the season
    C                    Gsus4/B
The colors change in the valley skies
Am            Gsus4/B
Dear God I've sealed my fate
C
Running through hell
D
Heaven can wait

F
Long road to ruin
C
There in your eyes
F                     C   C  Gsus4/B
Under the cold streetlights
Am
No tomorrow
D              F
No dead end in sight

C
Let's say we take this town
C                       F
No king or queen of any state
                  F
Get up to shut it down
                               C
Open the streets and raise the gates

I know a wall to scale
C                        F
I know a field without a name

Head on without a care
F
Before it's way too late

Am        Gsus4/B
Maybe the season
    C                    Gsus4/B
The colors change in the valley skies
Am            Gsus4/B
Oh God I've sealed my fate
C
Running through hell
D
Heaven can wait

F
Long road to ruin
C
There in your eyes
F                     C   C  Gsus4/B
Under the cold streetlights
Am
No tomorrow
D              F
No dead end in sight

F
Long road to ruin
C
There in your eyes
F                     C   C  Gsus4/B
Under the cold streetlights
Am
No tomorrow
D              F
No dead end in sight


Cadd9          Gsus4            Cadd9
For every piece to fall in place
        Gsus4           Cadd9
Forever gone without a trace
        Gsus4
Your horizon takes its shape
Am7/G                  Gsus4
No turning back, don't turn that page

Am7           Gsus4/B      C
Come now, I'm leaving here tonight
              Gsus4/B      Am7
Come now, let's leave it all behind
             Gsus4/B
Is that the price you pay
C
Running through hell
C
Heaven can wait

SOLO
E  :-------------------------|-------------------|---------------------|
B  :-----8-8-----------------|------------8-8----|---------------------|
G  :-----------9b-7h9p7-\5-7-|5---------------9b-|7-9-7-5-----5-h7-p5--|
D  :-5/7---------------------|--7-5--5-/7--------|--------7-5---------7|
A  :-------------------------|-------------------|---------------------|
E  :-------------------------|-------------------|---------------------|

E  :------------------------------------|----------------------------|
B  :------------------------------------|----------------------------|
G  :5-----------------------------------|----------------------------|
D  :--7-p5---5-h7-p5---5-h7-p5----------|-----------------------5-h7-|
A  :-------7---------7---------7-5-h7-p-|5-h7-p--5---------5-h7------|
E  :-----------------------------------8|------8---8-5-8-8-----------|

E  :------------------|----------------------|--------------------|
B  :5-5------5-5------|----------------------|--------------------|
G  :5-5------5-5------|5-7b-7b-7b-7b-7b-7r---|5-7-5-h7-p5---------|
D  :----5-h7-----7-5--|----------------------|--------------------|
A  :------------------|----------------------|--------------------|
E  :------------------|----------------------|--------------------|

E  :------------------------|------------------|
B  :5--------5--------5-----|------------------|
G  :5--------5--------5-----|------------------|
D  :--7-p5-----7-p5-----7-p5|--5---------------|
A  :-------5--------5-------|5---7-p5---5------|
E  :------------------------|---------8---8-5--|


F
Long road to ruin
C
There in your eyes
F                     C   C  Gsus4/B
Under the cold streetlights
Am
No tomorrow
D              F
No dead end in sight

F
Long road to ruin
C
There in your eyes
F                     C   C  Gsus4/B
Under the cold streetlights
Am
No tomorrow
D              F
No dead end in sight

F
Long road to ruin
C
There in your eyes
F                     C   C  Gsus4/B
Under the cold streetlights
Am
No tomorrow
D              F
No dead end in sight

---------------------------------------------------------
The End.  I Believe this tab is very close.  Any questions or comments, email me:
Trevor@Silvercade.com
Check out my band Silvercade at www.SILVERCADE.com
---------------------------------------------------------

=============================================================================
  	 Come Alive Tab by Foo Fighters, www.Ultimate-Guitar.Com

-------------------------------------------------------------------------------
			     COME ALIVE - Foo Fighters
-------------------------------------------------------------------------------
Tabbed by: Barry Miles
Email: shoebox_of_lies@hotmail.com

Tuning: EADGBF#

	Hey, this one was alot of work too, new album's getting alot harder to tab. I know the
tuning is risky, but I'm positive it's the tuning. If you're not always going back and
forth between the E and the F#, it's less likely to snap. Leave comments if you see 
anything can be fixed.

	I've got it arranged for 3 guitars throughout, and check out my guitar pro tab, that
was alot of work too, with the drums and stuff.

Intro/Verse:

   Guitar 1 (acoustic)
F#|-------0-----|-------------|-------0-----|-------------|
 B|-------------|-------0-----|-------------|-------0-----|
 G|-7-----------|-2-----------|-9-----------|-4-----------|
 D|---7-------7-|---2-------2-|---9-------9-|---4-------4-|
 A|-------------|-------------|-------------|-------------|\
 E|-7---7---7---|-2---2---2---|-9---9---9---|-4---4---4---| \
                                                            Repeat
F#|-------0-----|-------------|-------0-----|-------------| /  x 5
 B|-------------|-------0-----|-------------|-------------|/
 G|-7-----------|-2-----------|-9-----------|-4-----------|
 D|---7-------7-|---2-------2-|---9-------9-|-------------|
 A|-------------|-------------|-------------|-------------|
 E|-7---7---7---|-2---2---2---|-9---9---9---|-4-----------|

Chorus 1:

   Guitar 1 (acoustic, strum lightly)
F#|-0---0-0-0-0-|-0---0-0-0-0-|-0---0-0-0-0-|-0---0-0-0-0-|-0---0-0-0-0-|-0---0-0-0-0-|
 B|-0---0-0-0-0-|-0---0-0-0-0-|-0---0-0-0-0-|-0---0-0-0-0-|-0---0-0-0-0-|-0---0-0-0-0-|
 G|-4---4-4-4-4-|-4---4-4-4-4-|-6---6-6-6-6-|-6---6-6-6-6-|-8---8-8-8-8-|-8---8-8-8-8-|
 D|-5---5-5-5-5-|-5---5-5-5-5-|-7---7-7-7-7-|-7---7-7-7-7-|-9---9-9-9-9-|-9---9-9-9-9-|
 A|-5---5-5-5-5-|-5---5-5-5-5-|-7---7-7-7-7-|-7---7-7-7-7-|-9---9-9-9-9-|-9---9-9-9-9-|
 E|-3---3-3-3-3-|-3---3-3-3-3-|-5---5-5-5-5-|-5---5-5-5-5-|-7---7-7-7-7-|-7---7-7-7-7-|
  |Guitar 2 (acoustic)                                                                |
F#|-0-----------|-------------|-0-----------|-------------|-0-----------|-------------|
 B|-0-----------|-------------|-0-----------|-------------|-0-----------|-------------|
 G|-4-----------|-------------|-6-----------|-------------|-8-----------|-------------|
 D|-5-----------|-------------|-7-----------|-------------|-9-----------|-------------|
 A|-5-----------|-------------|-7-----------|-------------|-9-----------|-------------|
 E|-3-----------|-------------|-5-----------|-------------|-7-----------|-------------|

   Guitar 1 (acoustic, strum lightly)
F#|-0---0-0-0-0-|-0---0-0-0-0-|-0---0-0-0-0-|-0---0-0-0-0-|-0---0-0-0-0-|-0-----------|
 B|-0---0-0-0-0-|-0---0-0-0-0-|-0---0-0-0-0-|-0---0-0-0-0-|-0---0-0-0-0-|-0-----------|
 G|-4---4-4-4-4-|-4---4-4-4-4-|-6---6-6-6-6-|-6---6-6-6-6-|-8---8-8-8-8-|-8-----------|
 D|-5---5-5-5-5-|-5---5-5-5-5-|-7---7-7-7-7-|-7---7-7-7-7-|-9---9-9-9-9-|-9-----------|
 A|-5---5-5-5-5-|-5---5-5-5-5-|-7---7-7-7-7-|-7---7-7-7-7-|-9---9-9-9-9-|-9-----------|
 E|-3---3-3-3-3-|-3---3-3-3-3-|-5---5-5-5-5-|-5---5-5-5-5-|-7---7-7-7-7-|-7-----------|
  |Guitar 2 (acoustic)                                                                |
F#|-0-----------|-------------|-0-----------|-------------|-0-----------|-------------|
 B|-0-----------|-------------|-0-----------|-------------|-0-----------|-------------|
 G|-4-----------|-------------|-6-----------|-------------|-8-----------|-------------|
 D|-5-----------|-------------|-7-----------|-------------|-9-----------|-------------|
 A|-5-----------|-------------|-7-----------|-------------|-9-----------|-------------|
 E|-3-----------|-------------|-5-----------|-------------|-7-----------|-------------|

Intro/Verse:

Both Guitar 1 & 2 play the intro riff
Guitar 3 enters:

   Guitar 3 (acoustic, strum lightly)
F#|-0---0-0-0-0-|-0---0-0-0-0-|-0---0-0-0-0-|-0---0-0-0-0-|
 B|-0---0-0-0-0-|-0---0-0-0-0-|-0---0-0-0-0-|-0---0-0-0-0-|
 G|-7---7-7-7-7-|-2---2-2-2-2-|-9---9-9-9-9-|-4---4-4-4-4-|
 D|-7---7-7-7-7-|-2---2-2-2-2-|-9---9-9-9-9-|-4---4-4-4-4-| x6
 A|-x---x-x-x-x-|-x---x-x-x-x-|-x---x-x-x-x-|-x---x-x-x-x-|
 E|-7---7-7-7-7-|-2---2-2-2-2-|-9---9-9-9-9-|-4---4-4-4-4-|

Chorus 2:

   Guitars 1 & 2
F#|-0---0-0-0-0-|-0---0-0-0-0-|-0---0-0-0-0-|-0---0-0-0-0-|-0---0-0-0-0-|-0---0-0-0-0-|
 B|-0---0-0-0-0-|-0---0-0-0-0-|-0---0-0-0-0-|-0---0-0-0-0-|-0---0-0-0-0-|-0---0-0-0-0-|
 G|-4---4-4-4-4-|-4---4-4-4-4-|-6---6-6-6-6-|-6---6-6-6-6-|-8---8-8-8-8-|-8---8-8-8-8-|
 D|-5---5-5-5-5-|-5---5-5-5-5-|-7---7-7-7-7-|-7---7-7-7-7-|-9---9-9-9-9-|-9---9-9-9-9-| x3
 A|-5---5-5-5-5-|-5---5-5-5-5-|-7---7-7-7-7-|-7---7-7-7-7-|-9---9-9-9-9-|-9---9-9-9-9-|
 E|-3---3-3-3-3-|-3---3-3-3-3-|-5---5-5-5-5-|-5---5-5-5-5-|-7---7-7-7-7-|-7---7-7-7-7-|

F#|-0---0-0-0-0-|-0---0-0-0-0-|-0---0-0-0-0-|-0---0-0-0-0-|-0-----------|-------------|
 B|-0---0-0-0-0-|-0---0-0-0-0-|-0---0-0-0-0-|-0---0-0-0-0-|-0-----------|-------------|
 G|-4---4-4-4-4-|-4---4-4-4-4-|-6---6-6-6-6-|-6---6-6-6-6-|-8-----------|-------------|
 D|-5---5-5-5-5-|-5---5-5-5-5-|-7---7-7-7-7-|-7---7-7-7-7-|-9-----------|-------------|
 A|-5---5-5-5-5-|-5---5-5-5-5-|-7---7-7-7-7-|-7---7-7-7-7-|-9-----------|-------------|
 E|-3---3-3-3-3-|-3---3-3-3-3-|-5---5-5-5-5-|-5---5-5-5-5-|-7-----------|-------------|

Interlude:

   Guitar 3 (clean electric):
F#|--0----------|--0----------|-0-----------|-------------|
 B|--0----------|--0----------|-0-----------|-------------|
 G|-11----------|-10----------|-8-----------|-------------|   x6
 D|-12----------|-11----------|-9-----------|-------------|
 A|-12----------|-11----------|-9-----------|-------------|
 E|-10----------|--9----------|-7-----------|-------------|

Third time, Guitars 1 & 2 re-enter:

   Guitar 1 (dist. electric):
F#|-------------|-------------|-------------|-------------|
 B|-------------|-------------|-------------|-------------|
 G|-------------|-------------|-------------|-------------|
 D|-------------|-------------|-------------|-------------|
 A|-----5b------|-----7b------|-----5b------|-----7b------|
 E|-7-------7-5-|-7-------7-5-|-7-------7-5-|-7-------7-5-|
  |Guitar 2 (acoustic)                                    |   x4
F#|-0---0--0--0--0|-0---0--0--0--0|0--0-0-0-0-|0--0-0-0-0-|
 B|-0---0--0--0--0|-0---0--0--0--0|0--0-0-0-0-|0--0-0-0-0-|
 G|11--11-11-11-11|10--10-10-10-10|8--8-8-8-8-|8--8-8-8-8-|
 D|12--12-12-12-12|11--11-11-11-11|9--9-9-9-9-|9--9-9-9-9-|
 A|12--12-12-12-12|11--11-11-11-11|9--9-9-9-9-|9--9-9-9-9-|
 E|10--10-10-10-10|-9---9--9--9--9|7--7-7-7-7-|7--7-7-7-7-|

Chorus 3:

Guitar 1 (dist.) repeats the same riff 7 1/2 times (or 15 if you only count 2 measures)

   Guitar 2 (acoustic)
F#|-0---0-0-0-0-|-0---0-0-0-0-|-0---0-0-0-0-|-0---0-0-0-0-|
 B|-0---0-0-0-0-|-0---0-0-0-0-|-0---0-0-0-0-|-0---0-0-0-0-|
 G|-4---4-4-4-4-|-4---4-4-4-4-|-6---6-6-6-6-|-6---6-6-6-6-|
 D|-5---5-5-5-5-|-5---5-5-5-5-|-7---7-7-7-7-|-7---7-7-7-7-|
 A|-5---5-5-5-5-|-5---5-5-5-5-|-7---7-7-7-7-|-7---7-7-7-7-|
 E|-3---3-3-3-3-|-3---3-3-3-3-|-5---5-5-5-5-|-5---5-5-5-5-|
  |Guitar 3 (dist. guitar)                                |
F#|-0-----------|-------------|-0-----------|-------------|
 B|-0-----------|-------------|-0-----------|-------------|
 G|-4-----------|-------------|-6-----------|-------------|
 D|-5-----------|-------------|-7-----------|-------------|
 A|-5-----------|-------------|-7-----------|-------------|\
 E|-3-----------|-------------|-5-----------|-------------| \
                                                             \Repeat
   Guitar 2 (acoustic)                                       /  x 2
F#|-0---0-0-0-0-|-0---0-0-0-0-|-0---0-0-0-0-|-0---0-0-0-0-| /
 B|-0---0-0-0-0-|-0---0-0-0-0-|-0---0-0-0-0-|-0---0-0-0-0-|/
 G|-1---1-1-1-1-|-1---1-1-1-1-|-1---1-1-1-1-|-1---1-1-1-1-|
 D|-2---2-2-2-2-|-2---2-2-2-2-|-2---2-2-2-2-|-2---2-2-2-2-|
 A|-2---2-2-2-2-|-2---2-2-2-2-|-2---2-2-2-2-|-2---2-2-2-2-|
 E|-0---0-0-0-0-|-0---0-0-0-0-|-0---0-0-0-0-|-0---0-0-0-0-|
  |Guitar 3 (dist. guitar)                                |
F#|-0-----------|-------------|-0-----------|-------------|
 B|-0-----------|-------------|-0-----------|-------------|
 G|-1-----------|-------------|-1-----------|-------------|
 D|-2-----------|-------------|-2-----------|-------------|
 A|-2-----------|-------------|-2-----------|-------------|
 E|-0-----------|-------------|-0-----------|-------------|

   Guitar 2 (acoustic)
F#|-0---0-0-0-0-|-0---0-0-0-0-|-0---0-0-0-0-|-0---0-0-0-0-|
 B|-0---0-0-0-0-|-0---0-0-0-0-|-0---0-0-0-0-|-0---0-0-0-0-|
 G|-4---4-4-4-4-|-4---4-4-4-4-|-3---3-3-3-3-|-3---3-3-3-3-|
 D|-5---5-5-5-5-|-5---5-5-5-5-|-4---4-4-4-4-|-4---4-4-4-4-|
 A|-5---5-5-5-5-|-5---5-5-5-5-|-4---4-4-4-4-|-4---4-4-4-4-|
 E|-3---3-3-3-3-|-3---3-3-3-3-|-2---2-2-2-2-|-2---2-2-2-2-|
  |Guitar 3 (dist. guitar)                                |
F#|-0-----------|-------------|-0-----------|-------------|
 B|-0-----------|-------------|-0-----------|-------------|
 G|-4-----------|-------------|-3-----------|-------------|
 D|-5-----------|-------------|-4-----------|-------------|
 A|-5-----------|-------------|-4-----------|-------------|
 E|-3-----------|-------------|-2-----------|-------------|

   Guitar 2 (acoustic)
F#|-0--0-0-0-0|-0--0-0-0-0|-0---0--0--0--0|-0---0--0--0--0|
 B|-0--0-0-0-0|-0--0-0-0-0|-0---0--0--0--0|-0---0--0--0--0|
 G|-1--1-1-1-1|-1--1-1-1-1|11--11-11-11-11|11--11-11-11-11|
 D|-2--2-2-2-2|-2--2-2-2-2|12--12-12-12-12|12--12-12-12-12|
 A|-2--2-2-2-2|-2--2-2-2-2|12--12-12-12-12|12--12-12-12-12|
 E|-0--0-0-0-0|-0--0-0-0-0|10--10-10-10-10|10--10-10-10-10|
  |Guitar 3 (dist. guitar)                                |
F#|-0-----------|-------------|-0-----------|-------------|
 B|-0-----------|-------------|-0-----------|-------------|
 G|-1-----------|-------------|-11----------|-------------|
 D|-2-----------|-------------|-12----------|-------------|
 A|-2-----------|-------------|-12----------|-------------|
 E|-0-----------|-------------|-10----------|-------------|

   Guitar 2 (acoustic)
F#|-0---0--0--0--0|-0---0--0--0--0|-0---0--0--0--0|-0---0--0--0--0|
 B|-0---0--0--0--0|-0---0--0--0--0|-0---0--0--0--0|-0---0--0--0--0|
 G|10--10-10-10-10|10--10-10-10-10|-9---9--9--9--9|-9---9--9--9--9|
 D|11--11-11-11-11|11--11-11-11-11|10--10-10-10-10|10--10-10-10-10|
 A|11--11-11-11-11|11--11-11-11-11|10--10-10-10-10|10--10-10-10-10|
 E|-9---9--9--9--9|-9---9--9--9--9|-8---8--8--8--8|-8---8--8--8--8|
  |Guitar 3 (dist. guitar)                                        |
F#|-0-------------|---------------|-0-------------|---------------|
 B|-0-------------|---------------|-0-------------|---------------|
 G|10-------------|---------------|-9-------------|---------------|
 D|11-------------|---------------|10-------------|---------------|
 A|11-------------|---------------|10-------------|---------------|
 E|-9-------------|---------------|-8-------------|---------------|

   Guitar 2 (acoustic)
F#|-0---0--0--0--0|-0---0--0--0--0|
 B|-0---0--0--0--0|-0---0--0--0--0|
 G|-9---9--9--9--9|-9---9--9--9--9|
 D|10--10-10-10-10|10--10-10-10-10|
 A|10--10-10-10-10|10--10-10-10-10|
 E|-8---8--8--8--8|-8---8--8--8--8|
  |Guitar 3 (dist. guitar)        |
F#|-0-------------|---------------|
 B|-0-------------|---------------|
 G|-9-------------|---------------|
 D|10-------------|---------------|
 A|10-------------|---------------|
 E|-8-------------|---------------|

Bridge:

Guitar 2 & 3 do the same as each other until the end.
For Guitar 1, I'm not sure if it's octave power chords, an octavia pedal, or just
2
guitars, but the sound is written.

   Guitar 2 & 3 (dist. guitars)
F#|-0---0-0-0-0-|-0---0-0-0-0-|-0---0-0-0-0-|-0---0-0-0-0-|
 B|-0---0-0-0-0-|-0---0-0-0-0-|-0---0-0-0-0-|-0---0-0-0-0-|
 G|-8---8-8-8-8-|-8---8-8-8-8-|-8---8-8-8-8-|-8---8-8-8-8-|
 D|-9---9-9-9-9-|-9---9-9-9-9-|-9---9-9-9-9-|-9---9-9-9-9-|
 A|-9---9-9-9-9-|-9---9-9-9-9-|-9---9-9-9-9-|-9---9-9-9-9-|
 E|-7---7-7-7-7-|-7---7-7-7-7-|-7---7-7-7-7-|-7---7-7-7-7-|
  |Guitar 1 (dist. guitar)                                |
F#|-------------|-------------|-------------|-------------|
 B|-------------|-------------|-------------|-------------|
 G|-----7b------|-----9b------|-----7b------|-----9b------|
 D|-9-------9-7-|-9-------9-7-|-9-------9-7-|-9-------9-7-|
 A|-----5b------|-----7b------|-----5b------|-----7b------|\
 E|-7-------7-5-|-7-------7-5-|-7-------7-5-|-7-------7-5-| \
                                                             Repeat x4
F#|-0---0-0-0-0-|-0---0-0-0-0-|-0---0-0-0-0-|-0---0-0-0-0-| /
 B|-0---0-0-0-0-|-0---0-0-0-0-|-0---0-0-0-0-|-0---0-0-0-0-|/
 G|-1---1-1-1-1-|-1---1-1-1-1-|-1---1-1-1-1-|-1---1-1-1-1-|
 D|-2---2-2-2-2-|-2---2-2-2-2-|-2---2-2-2-2-|-2---2-2-2-2-|
 A|-2---2-2-2-2-|-2---2-2-2-2-|-2---2-2-2-2-|-2---2-2-2-2-|
 E|-0---0-0-0-0-|-0---0-0-0-0-|-0---0-0-0-0-|-0---0-0-0-0-|
  |                                                       |
F#|-------------|-------------|-------------|-------------|
 B|-------------|-------------|-------------|-------------|
 G|-----7b------|-----9b------|-----7b------|-----9b------|
 D|-9-------9-7-|-9-------9-7-|-9-------9-7-|-9-------9-7-|
 A|-----5b------|-----7b------|-----5b------|-----7b------|
 E|-7-------7-5-|-7-------7-5-|-7-------7-5-|-7-------7-5-|

Chorus 4:

   Guitar 2 & 3
F#|-0---0-0-0-0-|-0---0-0-0-0-|-0---0-0-0-0-|-0---0-0-0-0-|
 B|-0---0-0-0-0-|-0---0-0-0-0-|-0---0-0-0-0-|-0---0-0-0-0-|
 G|-4---4-4-4-4-|-4---4-4-4-4-|-6---6-6-6-6-|-6---6-6-6-6-|
 D|-5---5-5-5-5-|-5---5-5-5-5-|-7---7-7-7-7-|-7---7-7-7-7-|
 A|-5---5-5-5-5-|-5---5-5-5-5-|-7---7-7-7-7-|-7---7-7-7-7-|
 E|-3---3-3-3-3-|-3---3-3-3-3-|-5---5-5-5-5-|-5---5-5-5-5-|
  |Guitar 1                                               |
F#|-------------|-------------|-------------|-------------|
 B|-------------|-------------|-------------|-------------|
 G|-7---6---4---|-------------|-7---6---4---|-------------|
 D|-------------|-7---5---4---|-------------|-7---5---4---|
 A|-5---4---2---|-------------|-5---4---2---|-------------|\
 E|-------------|-5---3---2---|-------------|-5---3---2---| \
                                                             \Repeat
   Guitar 2 (acoustic)                                       /  x 2
F#|-0---0-0-0-0-|-0---0-0-0-0-|-0---0-0-0-0-|-0---0-0-0-0-| /
 B|-0---0-0-0-0-|-0---0-0-0-0-|-0---0-0-0-0-|-0---0-0-0-0-|/
 G|-1---1-1-1-1-|-1---1-1-1-1-|-1---1-1-1-1-|-1---1-1-1-1-|
 D|-2---2-2-2-2-|-2---2-2-2-2-|-2---2-2-2-2-|-2---2-2-2-2-|
 A|-2---2-2-2-2-|-2---2-2-2-2-|-2---2-2-2-2-|-2---2-2-2-2-|
 E|-0---0-0-0-0-|-0---0-0-0-0-|-0---0-0-0-0-|-0---0-0-0-0-|
  |Guitar 3 (dist. guitar)                                |
F#|-------------|-------------|-------------|-------------|
 B|-------------|-------------|-------------|-------------|
 G|-----7b------|-----9b------|-----7b------|-----9b------|
 D|-9-------9-7-|-9-------9-7-|-9-------9-7-|-9-------9-7-|
 A|-----5b------|-----7b------|-----5b------|-----7b------|
 E|-7-------7-5-|-7-------7-5-|-7-------7-5-|-7-------7-5-|

Outro:

F#|-0---0-0-0-0-|-0---0-0-0-0-|-0---0-0-0-0-|-0---0-0-0-0-|
 B|-0---0-0-0-0-|-0---0-0-0-0-|-0---0-0-0-0-|-0---0-0-0-0-|
 G|-4---4-4-4-4-|-4---4-4-4-4-|-3---3-3-3-3-|-3---3-3-3-3-|
 D|-5---5-5-5-5-|-5---5-5-5-5-|-4---4-4-4-4-|-4---4-4-4-4-|
 A|-5---5-5-5-5-|-5---5-5-5-5-|-4---4-4-4-4-|-4---4-4-4-4-|
 E|-3---3-3-3-3-|-3---3-3-3-3-|-2---2-2-2-2-|-2---2-2-2-2-|
  |                                                       |
F#|-------------|-------------|-------------|-------------|
 B|-------------|-------------|-------------|-------------|
 G|-----7b------|-----7b------|-----7b------|-----9b------|
 D|-9-------9-7-|-9-------9-7-|-9-------9-7-|-9-------9-7-|
 A|-----5b------|-----5b------|-----5b------|-----7b------|
 E|-7-------7-5-|-7-------7-5-|-7-------7-5-|-7-------7-5-|

F#|-0--0-0-0-0|-0--0-0-0-0|-0---0--0--0--0|-0---0--0--0--0|
 B|-0--0-0-0-0|-0--0-0-0-0|-0---0--0--0--0|-0---0--0--0--0|
 G|-1--1-1-1-1|-1--1-1-1-1|11--11-11-11-11|11--11-11-11-11|
 D|-2--2-2-2-2|-2--2-2-2-2|12--12-12-12-12|12--12-12-12-12|
 A|-2--2-2-2-2|-2--2-2-2-2|12--12-12-12-12|12--12-12-12-12|
 E|-0--0-0-0-0|-0--0-0-0-0|10--10-10-10-10|10--10-10-10-10|
  |                                                       |
F#|-------------|-------------|-------------|-------------|
 B|-------------|-------------|-------------|-------------|
 G|-----7b------|-----7b------|-----7b------|-----9b------|
 D|-9-------9-7-|-9-------9-7-|-9-------9-7-|-9-------9-7-|
 A|-----5b------|-----5b------|-----5b------|-----7b------|
 E|-7-------7-5-|-7-------7-5-|-7-------7-5-|-7-------7-5-|

F#|-0---0--0--0--0|-0---0--0--0--0|-0--0--0--0--0--|-0--0--0--0--0--|
 B|-0---0--0--0--0|-0---0--0--0--0|-0--0--0--0--0--|-0--0--0--0--0--|
 G|10--10-10-10-10|10--10-10-10-10|-9--9--9--9--9--|-9--9--9--9--9--|
 D|11--11-11-11-11|11--11-11-11-11|10-10-10-10-10--|10-10-10-10-10--|
 A|11--11-11-11-11|11--11-11-11-11|10-10-10-10-10--|10-10-10-10-10--|
 E|-9---9--9--9--9|-9---9--9--9--9|-8--8--8--8--8--|-8--8--8--8--8--|
  |                                                                 |
F#|---------------|---------------|----------------|----------------|
 B|---------------|---------------|----------------|----------------|
 G|------7b-------|------9b-------|-5--5--5--5--5--|-7--7--7--7--7--|
 D|-9---------9-7-|-9---------9-7-|----------------|----------------|
 A|------5b-------|------7b-------|-3--3--3--3--3--|-5--5--5--5--5--|
 E|-7---------7-5-|-7---------7-5-|----------------|----------------|

F#|-0--0--0--0--0--|-0--0--0--0--0--|-0--0--0--0--0--|-0--0--0--0--0--|
 B|-0--0--0--0--0--|-0--0--0--0--0--|-0--0--0--0--0--|-0--0--0--0--0--|
 G|-9--9--9--9--9--|-9--9--9--9--9--|-9--9--9--9--9--|-9--9--9--9--9--|
 D|10-10-10-10-10--|10-10-10-10-10--|10-10-10-10-10--|10-10-10-10-10--|
 A|10-10-10-10-10--|10-10-10-10-10--|10-10-10-10-10--|10-10-10-10-10--|
 E|-8--8--8--8--8--|-8--8--8--8--8--|-8--8--8--8--8--|-8--8--8--8--8--|
  |                                                                   |
F#|----------------|----------------|----------------|----------------|
 B|----------------|----------------|----------------|----------------|
 G|-9--9--9--9--9--|11-11-11-11-11--|12-12-12-12-12--|14-14-14-14-14--|
 D|----------------|----------------|----------------|----------------|
 A|-7--7--7--7--7--|-9--9--9--9--9--|10-10-10-10-10--|12-12-12-12-12--|
 E|----------------|----------------|----------------|----------------|

F#|-0--0--0--0--0--|-0--0--0--0--0--|-0--------------|----------------|
 B|-0--0--0--0--0--|-0--0--0--0--0--|-0--------------|----------------|
 G|-9--9--9--9--9--|-9--9--9--9--9--|-8--------------|----------------|
 D|10-10-10-10-10--|10-10-10-10-10--|-9--------------|----------------|
 A|10-10-10-10-10--|10-10-10-10-10--|-9--------------|----------------|
 E|-8--8--8--8--8--|-8--8--8--8--8--|-7--------------|----------------|
  |                                                                   |
F#|----------------|----------------|----------------|----------------|
 B|----------------|----------------|----------------|----------------|
 G|12-12-12-12-12--|14-14-14-14-14--|-16-------------|----------------|
 D|----------------|----------------|----------------|----------------|
 A|10-10-10-10-10--|12-12-12-12-12--|-14-------------|----------------|
 E|----------------|----------------|----------------|----------------|

| /  slide up
| \  slide down
| h  hammer-on
| p  pull-off
| ~  vibrato
| +  harmonic
| x  Mute note
===============================================================================
  	 Stranger Things Have Happened Tab by Foo Fighters, www.Ultimate-Guitar.Com

hello :) i im sure that this is the most correct tab of Stranger things have
happened on UG so far :)
it works for me.. hope it will for you too.. i love this song, and thinks
Dave and Co. have done a amazing job writing the lyrics and the guitar
parts for this song. so i decided to tab it out

enjoy ;)

intro + verse

e|-----------------------------------------------------------------|
B|-----------------------------------------------------------------|
G|-----------------------------------------------------------------|
D|-----0---0-2---------------------0---0-2-0---0---0-2-----2-------|
A|-2-2---2-----0-----0---0-2---------------------------0h2---------|
E|---------------2-2---2-----1-0-0---0-------0---0-----------------|

chorus (listen to the song to get the right strumming)

e-----------------------2-------------------------
B-----------------------3-------------------------
G---4----2---------1----2----2----2-1----2----1---
D---4----4----5----2---------4----3-2----2----2---
A---2----4----5----2---------4----3-2----2----2---
E-------------3-----------------------------------

first bridge (this part is also included in second verse)

e|-----5-----5/7-----5----4----0---|
B|---3-----3-------3----3----3-----|
G|-4-----4-------4----4----4-------|
D|---------------------------------|
A|---------------------------------|
E|---------------------------------|

e|-----5-----5/7-----5----4----4b-5-7--|
B|---3-----3-------3----3----3---------|
G|-4-----4-------4----4----4-----------|
D|-------------------------------------|
A|-------------------------------------|
E|-------------------------------------|

(second verse change)

e|-----5-----5/7-----5----4----4b5-------|
B|---3-----3-------3----3----3-----5-3-0-|
G|-4-----4-------4----4----4-------------|
D|---------------------------------------|
A|---------------------------------------|
E|---------------------------------------|

second bridge

e|-7-7-7-10-10-7-5s7-7-9-12-12-12-x-4-4-4-5-5-4-0-2-4-4-x-|
B|-7-7-7-7--7--7-5s7-7-7-12-12-9--x-3-3-3-3-3-3-3-3-3-3-x-|
G|------------------------------------------------------x-|
D|------------------------------------------------------x-|
A|------------------------------------------------------x-|
E|------------------------------------------------------x-|


e|-10-10-10-12-12-10-x-12-12-12-14-14-12-x-12-12-12-14-14-12-10-12-10-12-x-|
B|-10-10-10-10-10-10-x-12-12-12-12-12-12-x-9--9--9--9--9--9--9--9--9--9--x-|
G|-----------------------------------------------------------------------x-|
D|-----------------------------------------------------------------------x-|
A|-----------------------------------------------------------------------x-|
E|-----------------------------------------------------------------------x-|

solo

e|--5-5-5-5-5-----------7---------------------------------|
B|--3-3-3-3-3-x-5~-3-5~-7-5-------------------------------|
G|--------------------------7-4p2---2h4-4-2-4-2-----------|
D|--------------------------------4-------------4-2-0-2---|
A|--------------------------------------------------------|
E|--------------------------------------------------------|


e|--10p7------7p5------------------------------------------------------------------------|
B|-------10-7-----7-5--10p7--------------------------------------------------------------|
G|--------------------------9-7--9p7-----------------------------------------------------|
D|-----------------------------------9-7--9-9-7------------------------6-6/7---9-9-9-9-9-|
A|----------------------------------------------9-7-7-5---7-7b---5h7-9-------9-----------|
E|------------------------------------------------------7------7-------------------------|

then comes last chorus followed by an outro.
the outro is just the main riff and the 1. bridge solo thingy

:)
=============================================================================
  	 Cheer Up Boys Your Make Up Is Running Tab by Foo Fighters, www.Ultimate-Guitar.Com

Ive put this together from what ive seen them play live on TV/Youtube etc. I saw them 
at B'ham 06/11/07 and positioned myself in front of Shifty & watched what they were 
when I remembered to lol. Was a truly awesome gig!

This tab sounds correct. Im really not sure about Shiftys part during the bridge though, 
yet to find some decent footage which enables me to see what hes playing and I havent 
it out by ear...

As always im open to suggestions.
Listen to the song to work out the order.

Standard Tuning: EADGBe

{Guitar 1 Grohl,
Guitar 2 Shifty}.)


Intro

Gtr. 1                          (after guitar 2 has play its measure twice)
e|prt1------------------------------ prt2---------------------------------|
B|---------------------------------- -------------------------------------|
G|-9-9-9-9-9-9-9-9-9-9-9-9-9-9-9-9-- x 4 ---------------------2-2-2-2-2-2-|
D|-9-9-9-9-9-9-9-9-9-9-9-9-9-9-9-9-- -------------------------2-2-2-2-2-2-|
A|-7-7-7-7-7-7-7-7-7-7-7-7-7-7-7-7-- ------------------4-5-7--0-0-0-0-0-0-|
E|---------------------------------- -0/12\-0-4-5-7-(0)-------------------|

Gtr 2.
comes in after guitar 1 part one
e||---------------------------------||
B||---------------------------------||
G||--------------------2-2-2-2-2-2--||  x5
D||--------------------2-2-2-2-2-2--||
A||-------------4-5-7--0-0-0-0-0-0--||
E||--0-4-5-7-(0)--------------------||

Both guitars

e||---------||
B||---------||
G||-----2-2-||
D||-4-4-2-2-|| straight into verse
A||-4-4-0-0-||
E||-2-2-----||


Verse 1
Gtr. 1
e||----------------------------------------------------||
B||---------------------------------------3-3-3-3-3-3--||
G||--9-9-9-9-9-9--8-8-8-8-8-8--2-2-2-2-2--2-2-2-2-2-2--|| x 4
D||--9-9-9-9-9-9--9-9-9-9-9-9--2-2-2-2-2--0-0-0-0-0-0--||
A||--7-7-7-7-7-7--6-6-6-6-6-6--0-0-0-0-0---------------||
E||----------------------------------------------------||

Gtr. 2
e||--------------------------------------------------------------------||
B||--------------------------------------------------------------------||
G||--9-9-9-9-9-13-13-13-13br---------------------11-11-11-11-11\9-9-9--|| x 4
D||--x-x-x-x-x--x--x--x--x----11-11-11-11-11-11---x--x--x--x--x-x-x-x--||
A||--7-7-7-7-7-11-11-11-11br---x--x--x--x--x--x---9--9--9--9--9\7-7-7--||
E||--0-------------------------9--9--9--9--9--9------------------------||


Pre chorus
Gtr.1
e||--------------------------||
B||--------------------------||
G||--9-9-9-9-9-9-9-9-9-9-9-9-||
D||--9-9-9-9-9-9-9-9-9-9-9-9-||
A||--7-7-7-7-7-7-7-7-7-7-7-7-||
E||--------------------------||

Gtr. 2
e||---------------------------------||
B||---------------------------------||
G||--------------------2-2-2-2-2-2--||  x3
D||--------------------2-2-2-2-2-2--||
A||-------------4-5-7--0-0-0-0-0-0--||
E||--0-4-5-7-(0)--------------------||


Chorus 1
Gtr. 1
e||-----------------0-0-0-0-2-2-2--3-3-3-----0-0-0-0---||
B||-----------------0-0-0-0-3-3-3--3-3-3-----0-0-0-0---||
G||-------2-2-2-1-1-1-1-1-1-2-2-2--0-0-0-----1-1-1-1---|| x2
D||-4-4-4-2-2-2-2-2-2-2-2-2-0-0-0--0-0-0-2-2-2-2-2-2---||
A||-4-4-4-0-0-0-2-2-2-2-2-2--------2-2-2-2-2-2-2-2-2---||
E||-2-2-2-------0-0-0-0-0-0--------3-3-3-0-0-0-0-0-0---||

Gtr. 2
e||-----------------0-0-0-0--------------------0-0-0-0-||
B||-----------------0-0-0-0--------------------0-0-0-0-||
G||-------2-2-2-----1-1-1-1-7-7-7-12-12-12-9-9-9-9-9-9-||  x2
D||-4-4-4-2-2-2-2-2-2-2-2-2-7-7-7-12-12-12-9-9-9-9-9-9-||
A||-4-4-4-0-0-0-2-2-2-2-2-2-5-5-5-10-10-10-7-7-7-7-7-7-||
E||-2-2-2-------0-0-0-0-0-0----------------------------||


Verse 2
Gtr. 1
e||----------------------------------------------------||
B||---------------------------------------3-3-3-3-3-3--||
G||--9-9-9-9-9-9--8-8-8-8-8-8--2-2-2-2-2--2-2-2-2-2-2--|| x 4
D||--9-9-9-9-9-9--9-9-9-9-9-9--2-2-2-2-2--0-0-0-0-0-0--||
A||--7-7-7-7-7-7--6-6-6-6-6-6--0-0-0-0-0---------------||
E||----------------------------------------------------||

Gtr. 2
e||--------------------------------------------------------------------||
B||--------------------------------------------------------------------||
G||--9-9-9-9-9/13-13-13-13br---------------------11-11-11-11-11\9-9-9--|| x 4
D||--x-x-x-x-x--x--x--x--x----11-11-11-11-11-11---x--x--x--x--x-x-x-x--||
A||--7-7-7-7-7/11-11-11-11b----x--x--x--x--x--x---9--9--9--9--9\7-7-7--||
E||--0-------------------------9--9--9--9--9--9------------------------||

Pre chorus
Gtr.1
e||---------------------------||
B||---------------------------||
G||--9-9-9-9-9-9-9-9-9-9-9-9--||
D||--9-9-9-9-9-9-9-9-9-9-9-9--||
A||--7-7-7-7-7-7-7-7-7-7-7-7--||
E||---------------------------||

Gtr. 2
e||---------------------------------||
B||---------------------------------||
G||--------------------2-2-2-2-2-2--|| x3
D||--------------------2-2-2-2-2-2--||
A||-------------4-5-7--0-0-0-0-0-0--||
E||--0-4-5-7-(0)--------------------||


Chorus 2
Gtr. 1
e||-----------------0-0-0-0-2-2-2--3-3-3-----0-0-0-0---||
B||-----------------0-0-0-0-3-3-3--3-3-3-----0-0-0-0---||
G||-------2-2-2-1-1-1-1-1-1-2-2-2--0-0-0-----1-1-1-1---|| x2
D||-4-4-4-2-2-2-2-2-2-2-2-2-0-0-0--0-0-0-2-2-2-2-2-2---||
A||-4-4-4-0-0-0-2-2-2-2-2-2--------2-2-2-2-2-2-2-2-2---||
E||-2-2-2-------0-0-0-0-0-0--------3-3-3-0-0-0-0-0-0---||

Gtr. 2
e||-----------------0-0-0-0--------------------0-0-0-0-||
B||-----------------0-0-0-0--------------------0-0-0-0-||
G||-------2-2-2-----1-1-1-1-7-7-7-12-12-12-9-9-9-9-9-9-||  x2
D||-4-4-4-2-2-2-2-2-2-2-2-2-7-7-7-12-12-12-9-9-9-9-9-9-||
A||-4-4-4-0-0-0-2-2-2-2-2-2-5-5-5-10-10-10-7-7-7-7-7-7-||
E||-2-2-2-------0-0-0-0-0-0----------------------------||


Bridge {The chord progression is E F# G# A G F# EAE}
Gtr.1 PM (Second time play double speed ie 8 times per chord instead of 4)
e||--------------------------------------------------------------||
B||------------------------------------------------------*-------||
G||-9999-11111111-13131313-14141414-12121212-11111111-9999999----||x 2
D||-9999-11111111-13131313-14141414-12121212-11111111-9999999----||
A||-7777-9-9-9-9--11111111-12121212-10101010-9-9-9-9--7777777/\--||
E||--------------------------------------------------------------||
*guitar 2 plays A5

Gtr. 2 (appegiated Grt. 1 chords but an octave or so lower)
e||-----0~---0~---0~---0~---0~---0~---0~-----------||
B||------0~---0~---0~---0~---0~---0~---0~----------||
G||--------------------------------------2---------|| x2
D||---2----4----6----7----5----4----2----2-2-------||
A||--2-2--4-4--6-6--7-7--5-5--4-4--2-2---0-2-------||
E||-(0)--(2)--(4)--(5)--(3)--(2)--(0)*-----0-/\----||
*(you could play the root note too as guitar two follow guitar one, just and octave or 
lower)


Solo
Gtr. 1 x 2
e|0-0-0-0-0-0-0-0-0-0-0-0-0-0-0-0-0-0-0-0-0-0-0-0-0-0-0-0-0-0-0-0-0-0-0-0-0-0-0-0-0-0-|
B|5-5-5-3-3h5-0-0-0-0-0-0-3-3-3-3/8-3-5-5-5-5-5-5-5-5-5-3-3h5-0-0-0-0-0-0-3-3-3-3/8-3-|
G|------------4-4-4-4-4-4-------------------------------------4-4-4-4-4-4-------------|
D|------------------------------------------------------------------------------------|
A|------------------------------------------------------------------------------------|
E|------------------------------------------------------------------------------------|

Gtr. 2 (plays Chorus Chords)
e||-----------------0-0-0-0--------------------0-0-0-0-||
B||-----------------0-0-0-0--------------------0-0-0-0-||
G||-------2-2-2-----1-1-1-1-7-7-7-12-12-12-9-9-9-9-9-9-||  x2
D||-4-4-4-2-2-2-2-2-2-2-2-2-7-7-7-12-12-12-9-9-9-9-9-9-||
A||-4-4-4-0-0-0-2-2-2-2-2-2-5-5-5-10-10-10-7-7-7-7-7-7-||
E||-2-2-2-------0-0-0-0-0-0----------------------------||

Post Solo
Both guitars strum
e||-----||
B||-----||
G||-9b--||
D||-x---||
A||-7b--||
E||----\||


Chorus 3
Gtr. 1
e||-----------------0-0-0-0-2-2-2--3-3-3-----0-0-0-0---||
B||-----------------0-0-0-0-3-3-3--3-3-3-----0-0-0-0---||
G||-------2-2-2-1-1-1-1-1-1-2-2-2--0-0-0-----1-1-1-1---|| x4
D||-4-4-4-2-2-2-2-2-2-2-2-2-0-0-0--0-0-0-2-2-2-2-2-2---||
A||-4-4-4-0-0-0-2-2-2-2-2-2--------2-2-2-2-2-2-2-2-2---||
E||-2-2-2-------0-0-0-0-0-0--------3-3-3-0-0-0-0-0-0---||

Gtr. 2
e||-----------------0-0-0-0--------------------0-0-0-0-||
B||-----------------0-0-0-0--------------------0-0-0-0-||
G||-------2-2-2-----1-1-1-1-7-7-7-12-12-12-9-9-9-9-9-9-||  x4
D||-4-4-4-2-2-2-2-2-2-2-2-2-7-7-7-12-12-12-9-9-9-9-9-9-||
A||-4-4-4-0-0-0-2-2-2-2-2-2-5-5-5-10-10-10-7-7-7-7-7-7-||
E||-2-2-2-------0-0-0-0-0-0----------------------------||


Outro
e||---------------------------------||
B||---------------------------------||
G||-------------------2-2-2-2-2-2---|| x 3
D||-------------------2-2-2-2-2-2---||
A||------------4-5-7--0-0-0-0-0-0---||
E||-0-4-5-7-(0)---------------------||

Both guitars

e||----------0~--||
B||----------0~--||
G||-----2-2--1~--||
D||-4-4-2-2--2~--||
A||-4-4-0-0--2~--||
E||-2-2------0~--||


Structure

Intro
Verse
Chorus
Verse
Chorus
Bridge
Solo
Chorus x 2
Outro

Lyrics
It was meant to be but all along it never meant a thing
Never stopped to ask you why you didn't pass me by
Did you see me when your life flashed before your eyes?
Was it just that I wasn't hard enough, hard enough for you?

Stop using my
(Stop me, stop me, stop me)
Confusion
(Stop me, stop me, stop me)

Wait, wait, theres a world out there
(There's a world out there)
Dont you deny me
(Dont you deny me)
Give me one last wish
(Give me one last wish)
There's a world out there

Elementary, I solved them all, all your mysteries
Settle down and with good time, we can solve all mine
Tell me lies, oh tell me when, tell me off again
And I will let you know when I've had enough, had enough of you

Stop using my
(Stop me, stop me, stop me)
Confusion
(Stop me, stop me, stop me)

Wait, wait, theres a world out there
(There's a world out there)
Dont you deny me
(Dont you deny me)
Give me one last wish
(Theres a world out there)
Theres a world out there
(Dont you deny me)

Know youve got your reasons
Hey, let's call it even
Turn out all the lights and go to bed
Still I get this feeling
No one will believe me
When I let these ghosts outside my head
Theres a world out there
(Theres a world out there)
Dont you deny me
(Dont you deny me)
Give me one last wish
(Give me one last wish)
Dont you deny me
(Dont you deny me)

There's a world out there
(There's a world out there)
Dont you deny me
(Dont you deny me)
Give me one last wish
(Theres a world out there)
Theres a world out there
(Dont you deny me)
============================================================================
  	 Summers End Tab by Foo Fighters, www.Ultimate-Guitar.Com

Intro

e|------------0-|
B|------------3-|
G|------------2-|
D|------0---0---| X2
A|---0-3-3-0----|
E|-33-----------|

hold chord on second time


Verse (listen to song for strumming)

e|-------------------------------------|
B|-6p5-3------3h5p3-/6p5-3---3---3h5p3-|
G|-------5-2-5-------------5---5-------|
D|-------------------------------------|
A|-------------------------------------|
E|-------------------------------------|

e|---------0------3-----------------0-|
B|-6p5-3---1------3-----------------3-|
G|-------5-0------0-----------------2-|
D|---------2------0-----------0---0---|
A|---------3------2--------0-3-3-0----|
E|----------------3------33-----------|

e|-------------------------------------|
B|-6p5-3------3h5p3-/6p5-3---3---3h5p3-|
G|-------5-2-5-------------5---5-------|
D|-------------------------------------|
A|-------------------------------------|
E|-------------------------------------|

e|---------0------3-----------------0-|
B|-6p5-3---1------3-----------------3-|
G|-------5-0------0-----------------2-|
D|---------2------0-----------0---0---|
A|---------3------2--------0-3-3-0----|
E|----------------3------33-----------|

e|------------0--------------2-|
B|------------3--------------3-|
G|------------2--------------2-|
D|------0---0----------0---0---|
A|---0-3-3-0--------0-3-3-0----|
E|-33-------------33-----------|


Chorus:

(listen to the song for timing and strumming)

D Am C G (x2)

e|----------2-|
B|----------3-|
G|----------2-|
D|----0---0---|
A|---0-3-3-0--|
E|33----------|

D Am C G (x2)

e|------------0-|
B|------------3-|
G|------------2-|
D|------0---0---|
A|---0-3-3-0----|
E|-33-----------|


Verse

Chorus

Solo:

e|--------------------------------------------------------|
B|---15--13-15-------------------15--13-15----------------|
G|-14--14-----14-12------------14--14-----14-12--12--12---|
D|-----------------15-12-15-12-----------------15--15--15-|
A|--------------------------------------------------------|
E|--------------------------------------------------------|

e|--------------------------------------|
B|---15--13-15--18b(20)r18-15-13-1515~~-|
G|-14--14-------------------------------|
D|--------------------------------------|
A|--------------------------------------|
E|--------------------------------------|

e|------------------------------------------------|
B|------------------------------------------------|
G|15\14\12\10\7------15\14\12\10/1111/12/14-12\11-|
D|x \x \x \x \x------x \x \x \x /x x /x /x -x \x -|
A|13\12\10\8 \5------13\12\10\8 /9 9 /10/12-10\9 -|
E|------------------------------------------------|

e|-------------------------------------|
B|-------------------------------------|
G|15\14\12\10-141417141417141417141417-|
D|x \x \x \x --------------------------|
A|13\12\10\8 --------------------------|
E|-------------------------------------|

e|--------------------------------------------|
B|--------------------------------------------|
G|141417141417141417141417-14-12---12---------|
D|-------------------------------15--15-12-15-|
A|--------------------------------------------|
E|--------------------------------------------|

Chorus x2

Solo part (plays over chorus to end)

e|----------------------15/17-15-----------------------------|
B|--13-15-13---13-15-13---------18-17-13-13------------------|
G|14---------14----------------------------14-12--12---------|
D|----------------------------------------------15--15-12-15-|
A| ----------------------------------------------------------|
E|-----------------------------------------------------------|

end on

e|-0--
B|-3--
G|-2--
D|-0--
A|----
E|----
============================================================================
-------------------------------------------------------------------------------------|   
     The Ballad of the Beaconsfield Miners - Foo Fighters
-------------------------------------------------------------------------------------|

Tabbed by: Jake Forster
Email: darn_you_to_heck@hotmail.com

Great song of the new album. Im not sure how many guitars there are in this song, I
theres about 4. I have tabbed the main two guitars that can be heard throughout the song.
of it is correct but im not sure about the harmonics in riff 3 or the ending.

Guitar 1: Standard Tuning
Guitar 2: Drop-D Tuning


Intro

  Guitar 1

e|-----------------------------|-----------------------------|
B|--------------------0--------|--------------------0--------|
G|--------0-----0-----0-----0--|--------0-----0-----0-----0--|
D|--0h3h5----5-----5-----5-----|--0h3h5----5-----5-----5-----|
A|-----------------------------|-----------------------------|
E|-----------------------------|-----------------------------|

e|-----------------------------|-----------------------------|
B|--------------------0--------|--------------------0--------|
G|--------0-----0-----0-----0--|--------0-----0-----0-----0--|
D|--0h3h5----5-----5-----5-----|--0h3h5----5-----5-----5-----|
A|-----------------------------|-----------------------------|
D|-----------------------------|-----------------------------|


Riff 1

  Guitar 1

e|----------------------------|----------------------------|
B|--------------------0-------|--------------------0-------|
G|--------0-----0-----0----0--|--------0-----0-----0----0--|
D|--0h3h5----5-----5-----5----|--0h3h5----5-----5-----5----|
A|----------------------------|----------------------------|
E|----------------------------|----------------------------|
|
| Guitar 2
|
e|----------------------------|----------------------------|
B|-----------------------0----|-----------------------0----|
G|--------0--------0----------|--------0--------0----------|
D|--0h3h5---5--3h5---3h5------|--0h3h5---5--3h5---3h5------|
A|----------------------------|----------------------------|
D|----------------------------|----------------------------|

  Guitar 1

e|----------------------------|----------------------------|
B|--------------------0-------|----------------------------|
G|--------0-----0-----0----0--|--------------0-----0----0--|
D|--0h3h5----3-----3-----3----|--------0-------------------|
A|----------------------------|--0h3h5---3-----3-----3-----|
E|----------------------------|----------------------------|
|
| Guitar 2
|
e|----------------------------|----------------------------|
B|----------------------------|----------------------------|
G|--------0--------------2----|----------------------------|
D|--0h3h5---3--3h5-3-3h5------|--------0--------------2----|
A|----------------------------|--0h3h5---3--3h5-3-3h5------|
D|----------------------------|----------------------------|

Riff 2


Guitar 1 & 2

e|----------------------------|----------------------------|
B|----------------------------|----------------------------|
G|--------0------------0------|--------0------------0------|
D|--3h4h5---5----3h4h5---5----|--3h4h5---5----3h4h5---5----|
A|----------------------------|----------------------------|
E|----------------------------|----------------------------|

Riff 3

  Guitar1

e|-----------------------------------|------------------------------|
B|-----------------------------------|------------------------------|
G|--------0-------0-------0-------0--|---------0-----0-----0-----0--|
D|--0h3h5---0h3h5---0h3h5---0h3h5----|--0h3h5-----5-----5-----5-----|
A|-----------------------------------|------------------------------|
E|-----------------------------------|------------------------------|
|
| Guitar 2
|                                                +      +      +
e|-----------------------------------|------------------------------|
B|-----------------------------------|------------------------------|
G|--------0-------0-------0-------0--|---------0--------------------|
D|-----------------------------------|--0h3h5----12----12-----12----|
A|--------------------------0h3h5----|------------------------------|
D|--0h3h5---0h3h5---0h3h5------------|------------------------------|


Riff 4

  Guitar 1

e|----------------------------|-----------------------------|
B|--------------------0-------|--------------------0--------|
G|--------0-----0-----0-----0-|--------0-----0-----0-----0--|
D|--0h3h5----5-----5-----5----|--0h3h5----5-----5-----5-----|
A|----------------------------|-----------------------------|
E|----------------------------|-----------------------------|
|
| Guitar 2
|
e|----------------------------|----------------------------|
B|----------------------------|----------------------------|
G|--------0-------4-\-3-/-4---|--------0-------4-\-3---0---|
D|--0h3h5---5-----5-\-4-/-5---|--0h3h5---5-----5-\-4-/-5---|
A|----------------------------|----------------------------|
D|----------------------------|----------------------------|

Ending

not sure about the ending


| /  slide up
| \  slide down
| h  hammer-on
| p  pull-off
| ~  vibrato
| +  harmonic
| x  Mute note
===========================================================================

corrections,comments,or the ending to darn_you_to_heck@hotmail.com

=============================================================================
Foo Fighters - Statues
Album: Echoes, Silence, Patience & Grace - Track 10
Tuning: Standard (EBGDAe)

I was trying to work out the tab, and I got pretty far, then I found this tab and just
with it, I changed a little part in the solo that I thought was wrong, and the rest
pretty correct, in the verse I changed the last chord in the sequence to a Bb instead of 
C,
which I thought was incorrect. Please Comment and Rate! fretandroid@hotmail.com

Contributors: Fender Mustang, grouch593


Intro  [0:01 - 0:14]
(The Vibrato's are subtle)
[e||------------------------------------8~-10~-------------------------||
[B||-10~--10b--10p8~--------10br----------------10~---10b--10p8~-------||
[G||--------------------9p7--------------------------------------------||
[D||-------------------------------------------------------------------||
[A||-------------------------------------------------------------------||
[E||-------------------------------------------------------------------||
[
[
[Intro/Interlude Chords
[     D     D     C     C     G     G     F     F
[e||--2---- 3-----3-----3-----3-----3-----1-------|
[B||--3-----3-----1-----1-----3-----3-----1-----1-|
[G||--2-----2-----0-----0-----0-----0-----2-----2-|
[D||--0-----0-----2-----2-----0-----0-----3-----3-|
[A||--------------3-----3-----2-----2-----3-----3-|
[E||--------------------------3-----3-----1-----1-|
[     D     D     C     C
[e||--2-----2-----3-----3-||
[B||--3-----3-----1-----1-||
[G||--2-----2-----0-----0-||
[D||--0-----0-----2-----2-||
[A||--------------3-----3-||
[E||----------------------||


Verse (Verse Intro) [0:14 - 0:20]
     G     G
e||--3-----3-|
B||--3-----3-|
G||--0-----0-|
D||--0-----0-|
A||--2-----2-|
E||--3-----3-|

Verse (Vocals set in) [0:20 - 0:40]
     G     F     Em    Eb    G     F     Em    Bb
e||--3-----1-----0-----6-----3-----1-----0-----6-||
B||--3-----1-----0-----8-----3-----1-----0-----8-||
G||--0-----2-----0-----8-----0-----2-----0-----8-||
D||--0-----3-----2-----8-----0-----3-----2-----8-||
A||--2-----3-----2-----6-----2-----3-----2-----6-||
E||--3-----1-----0-----------3-----1-----0-------||

Chorus [0:40 - 1:01]
     D     C     G     G     D     C     G     G
e||--2-----3-----3-----3-----2-----3-----3-----3-||
B||--3-----1-----3-----3-----3-----1-----3-----3-||
G||--2-----0-----0-----0-----2-----0-----0-----0-||
D||--0-----2-----0-----0-----0-----2-----0-----0-||
A||--------3-----2-----2-----------3-----2-----2-||
E||--------------3-----3-----------------3-----3-||

D                   C   C-C         G
We’re just ordinary people, you and me

D                      C    C-C          G
Time will turn us into statues, eventually

Verse     [1:01 - 1:21]

Chorus x2 [1:21 - 2:02]

Bridge    [2:02 - 2:23]
Note On the D, occasionally pull your middle finger
finger from the high e string and add it back on. (Dsus2)
     Am    C     G     D     Am    C     G     D
e||--0-----3-----3-----2-----0-----3-----3-----2(0)--||
B||--1-----1-----3-----3-----1-----1-----3-----3(3)--||
G||--2-----0-----0-----2-----2-----0-----0-----2(2)--||
D||--2-----2-----0-----0-----2-----2-----0-----0(0)--||
A||--0-----3-----2-----------0-----3-----2-----------||
E||--------------3-----------------------3-----------||


Solo      [2:23 - 2:43]
(Chords the same as in the bridge)

e||---------------------(0)------|
B||------------------------------|
G||------------------------------|
D||--7--7-9-10--10-9-7-9--10p9p7-|
A||------------------------------|
E||------------------------------|

                           (Played Faster)
e||---(0)---------------(0)----------------||
B||----------------------------------------||
G||----------------------------------------||
D||--7---7-9-10-10-9-7-9----10p9--10p9p7---||
A||-------------------------------------10-||
E||----------------------------------------||

Interlude [2:43 - 3:03]
E||------------------------------------------8~-10~-||
B||-------10~--10b--10p8~--------10br---------------||
G||--------------------------9p7--------------------||
D||-------------------------------------------------||
A||-/10---------------------------------------------||
E||-------------------------------------------------||

E||------------------------------------8~--5~-||
B||-10~--10b--10p8~--------10br---------------||
G||--------------------9p7--------------------||
D||-------------------------------------------||
A||-------------------------------------------||
E||-------------------------------------------||


Chorus x3  [3:03 - END]
(Let G ring out)


Lyrics:

You and I were two old and tortured souls
Repaired by a love of broken things
In a life, just some bodies growing old
No fear of the end, of anything

We're just ordinary people, you and me
Time will turn us into statues, eventually

We got by, though we never needed much
A sliver of hope, no diamond rings
We got high, it was heaven it was hell
Flying over them, with broken wings

We're just ordinary people, you and me

Time will turn us into statues, eventually
Oh, just two ordinary people, you and me
Time will turn us into statues, eventually

Our bones forever in stone
Monuments of life
To dust, as everything must
We fade away in time, oh

We're just ordinary people, you and me
Time will turn us into statues, eventually
Oh, just two ordinary people, you and me
Oh, time will turn us into statues, eventually

Duration Legend
---------------
W - whole
H - half
Q - quarter
E - 8th
S - 16th
T - 32nd
X - 64th
. - note dotted
|-n-|  - n-tuplets




Tablature Legend
----------------
L - tied note
x - dead note
g - grace note
(n) - ghost note
> - accentuded note
NH - natural harmonic
AH - artificial harmonic
TH - tapped harmonic
SH - semi harmonic
PH - pitch harmonic
h - hammer on
p - pull off
b - bend
br - bendRelease
pb - preBend
pbr - preBendRelease
brb - bendReleaseBend
\n/ - tremolo bar dip
\n - tremolo bar dive
-/n - tremolo bar Release up
/n\ - tremolo bar inverted dip
/n - tremolo bar return
-\n - tremolo bar Release down
S - shift slide
s - legato slide
/ -  slide into from below or out of upwards
\ -  slide into from above or out of downwards
~ - vibrato
W - wide vibrato
tr - trill
TP - tremolo picking
T - tapping
S - slap
P - pop
< - fade in
^ - brush up
v - brush down
=============================================================================
  	 But Honestly Tab by Foo Fighters, www.Ultimate-Guitar.Com

But, Honestly - Foo Fighters
Album: Echoes Silence Patience and Grace
Track 11

Tuning: Standard Tuning (eBGDAE)
Please Rate And Comment (Highly)


This tab IS 100% correct.
This is off fftabs.com, great tab I cleaned it up a bit as I would’ve liked it, hope you
to. Great song! Please Comment and Rate!
Contributors: Lutador De Foo, Monkey Fighter, Gabe, himynameislong!
Thanks For Feedback comments from LukeAV, for you blue and and Dark Link.


Legend: x  - Dampen Notes Heavily With Fretting Hand
        /  - Slide Up Or Down To Desired Note
        PM - Mute Strings Lightly With Picking Hand
        ~  - Let Notes Ring

Update: 4 May,

Intro
e|--0-0-0-0--0-0-0-0--0-0-0-0----0--0--0--0--|
B|--0-0-0-0--0-0-0-0--0-0-0-0----0--0--0--0--|
G|--9-9-9-9--8-8-8-8--9-9-9-9/--13-13-13-13--| x2
D|--9-9-9-9--9-9-9-9--9-9-9-9/--14-14-14-14--|
A|--7-7-7-7--x-x-x-x--0-0-0-0----0--0--0--0--|
E|-----------7-7-7-7-------------------------|

Verse
e|--0-0-0-0--0-0-0-0--0-0-0-0----0--0--0--0--|
B|--0-0-0-0--0-0-0-0--0-0-0-0----0--0--0--0--|
G|--9-9-9-9--8-8-8-8--9-9-9-9/--13-13-13-13--| x4
D|--9-9-9-9--9-9-9-9--9-9-9-9/--14-14-14-14--|
A|--7-7-7-7--x-x-x-x--0-0-0-0----0--0--0--0--|
E|-----------7-7-7-7-------------------------|

Chorus (Note: At "Dont Take What I Don't Need" etc, you can play the High E & B Strings 
Make It Sound Fuller)
e|------------------------------------|
B|------------------------------------|
G|--------13-------13-------13--------|
D|-----14----14-------14-------14-----|
A|--13----------13-------13-------13--|
E|------------------------------------|
 Maybe___

|-------0--0--0---0--0--0---0--0--0---------0--0--0--------|
|-------0--0--0---0--0--0---0--0--0---------0--0--0--------|
|------13-13-13--13-13-13--13-13-13--------11-11-11--------|
|------14-14-14--14-14-14--14-14-14--------11-11-11--------| x3
|------12-12-12---x--x--x--13-13-13---------9--9--9--------|
|----------------12-12-12----------------------------------|
Don’t take what I_______ don’t need___                      Don’t Take...
                                    (Give me back my piece of mind)
|--0-0-0-0--|
|--0-0-0-0--|
|--9-9-9-9--|
|--9-9-9-9--|
|--7-7-7-7--|
|-----------|
You’ll see

Verse
e|--0-0-0-0--0-0-0-0--0-0-0-0----0--0--0--0--|
B|--0-0-0-0--0-0-0-0--0-0-0-0----0--0--0--0--|
G|--9-9-9-9--8-8-8-8--9-9-9-9/--13-13-13-13--| x6
D|--9-9-9-9--9-9-9-9--9-9-9-9/--14-14-14-14--|
A|--7-7-7-7--x-x-x-x--0-0-0-0----0--0--0--0--|
E|-----------7-7-7-7-------------------------|

Chorus
e|------------------------------------|
B|------------------------------------|
G|--------13-------13-------13--------|
D|-----14----14-------14-------14-----|
A|--13----------13-------13-------13--|
E|------------------------------------|
 Maybe___

|----------------------------------------------------------|
|----------------------------------------------------------|
|------13-13-13--13-13-13--13-13-13--------11-11-11--------|
|------14-14-14--14-14-14--14-14-14--------11-11-11--------| x3
|------12-12-12---x--x--x--13-13-13---------9--9--9--------|
|----------------12-12-12----------------------------------|
Don’t take what I_______ don’t need___                      Don’t Take...
                                    (Give me back my piece of mind)
|--0-0-0-0--|
|--0-0-0-0--|
|--9-9-9-9--|
|--9-9-9-9--|
|--7-7-7-7--|
|-----------|

Bridge (Gtr.2 enters where shown)
Gtr. 1
(For the first chord in the sequence you can play a B with the high e open ["and & "all 
is where it is played])
e|--0-0-0-0--0-0-0-0--0-0-0-0--0-0-0-0-0-0-0-0--|
B|--0-0-0-0--0-0-0-0--0-0-0-0--0-0-0-0-0-0-0-0--|
G|--8-8-8-8--6-6-6-6--5-5-5-5--1-1-1-1-1-1-1-1--|
D|--9-9-9-9--6-6-6-6--5-5-5-5--2-2-2-2-2-2-2-2--|
A|--9-9-9-9--4-4-4-4--3-3-3-3--2-2-2-2-2-2-2-2--|
E|-----------------------------0-0-0-0-0-0-0-0--|
 And tonight… Stars…… scars……  given me……

e|-0-0-0-0--0-0-0-0--0-0-0-0--0-0-0-0--0-0-0-0--0-0-0-0--0-0-0-0--0-0-0-0-|
B|-0-0-0-0--0-0-0-0--0-0-0-0--0-0-0-0--0-0-0-0--0-0-0-0--0-0-0-0--0-0-0-0-|
G|-8-8-8-8--6-6-6-6--5-5-5-5--5-5-5-5--5-5-5-5--5-5-5-5--5-5-5-5--5-5-5-5-|
D|-9-9-9-9--6-6-6-6--5-5-5-5--5-5-5-5--5-5-5-5--5-5-5-5--5-5-5-5--5-5-5-5-|
A|-9-9-9-9--4-4-4-4--3-3-3-3--3-3-3-3--3-3-3-3--3-3-3-3--3-3-3-3--3-3-3-3-|
E|------------------------------------------------------------------------|
    All the… to you…  blue…                      [Gtr.2 Enters]

Gtr.2 (Let Ring On Single Notes, and repeat first bar once to build up)
      (After two bars of first sequence start palm muting)
    ~  ~  ~  ~  ~  ~  ~  ~   PM----------------------------------------|
e|--0--0--0--0--0--0--0--0--|--0-0-0-0--0-0-0-0--0-0-0-0--0-0-0-0------|
B|--0--0--0--2--0--0--0--2--|--0-0-0-0--0-0-0-0--0-0-0-0--2-2-2-2------|
G|--1--7--5--2--1--7--5--2--|--1-1-1-1--7-7-7-7--5-5-5-5--2-2-2-2------|
D|--2--7--5--2--2--7--5--2--|--2-2-2-2--7-7-7-7--5-5-5-5--2-2-2-2------|
A|--2--5--3--0--2--5--3--0--|--2-2-2-2--5-5-5-5--3-3-3-3--0-0-0-0------|
E|--0-----------0-----------|--0-0-0-0---------------------------------|

Outro
Gtr. 1
e|--0-0-0-0--0-0-0-0--0-0-0-0--0-0-0-0--|
B|--0-0-0-0--0-0-0-0--0-0-0-0--2-2-2-2--|
G|--1-1-1-1--7-7-7-7--5-5-5-5--2-2-2-2--| x6
D|--2-2-2-2--7-7-7-7--5-5-5-5--2-2-2-2--|
A|--2-2-2-2--5-5-5-5--3-3-3-3--0-0-0-0--|
E|--0-0-0-0-----------------------------|


Gtr. 2 (Play each top section 4 times and the bottom part once in each progression, Play
6 times till fade out)
(Barre the 9th and 7th frets with your index finger for first three progressions is how
find it easiest)
e|-------------------|-----------------|----------------|
B|---12--10--9--10---|---10--9---------|---8--7---------|
G|-------------------|----------11--9--|---------9--7---|
D|-------------------|-----------------|----------------|
A|-------------------|-----------------|----------------|
E|-------------------|-----------------|----------------|

e|------------------------------------------------------------|
B|------------------------------------------------------------|
G|--------------11--12--14-------------11--12--14-------------|
D|---11--12--14-------------11--12--14------------11--12--14--|
A|------------------------------------------------------------|
E|------------------------------------------------------------|

Song Order:
Intro
Verse
Chorus
Verse
Chorus
Bridge
Outro

Rate And Comment

Lyrics:

Where are you off to with that head of yours?
Is there somewhere you should be?
Was it something that I said the time I held you down
and told you it's not you it's only me?

Maybe

Don't take what I don't need
(Give me back my peace of mind)
Don't say what I don't need
(Give my back my precious time)
No way you'll silence me
You'll see

What you up to now your mirror's gone?
Is there someone you should be?
Did you think I was just fooling 'round with you?

But honestly
But honestly
But honestly

Don't take what I don't need
(Give me back my peace of mind)
Don't say what I don't need
(Give me back my precious time)
No way you'll silence me
(Give me back my peace and quiet)
Nowhere to hide from me
You'll see

And tonight I thank the stars
As I count my lucky scars
For everything you've given me

And all the wants I gave to you
Something borrowed, something blue
If you want them back
I'll give it to you

Give it to you [15x]

And one more thing that I gave to you [8x]
END

Please Rate And Comment

=============================================================================
Foo Fighters ~ Home
By Dave Grayhl

Standard Tuning.
The whole song follows a basic pattern and I have taken this from the gorgeous piano and 
it into guitar. It will never sound as good as it does on the piano but let me know 
you think. :)

 Intro.   G(1)
e|--------------------|                      [G1 stands for the slow
B|--------------------|                      G, and G2 stands for the
G|--------------------|                      Verse as indicated.]
D|----0----0----0----0|
A|--2----2----2----2--|
E|--3----3----3----3--|

     G(2)     Am       F          G1
e|---------------------------------------------|
B|---------------------------------------------|
G|---------------------------------------------|
D|----0-------2----------3-----------0----0----|
A|---2-2------0---------3----------2----2------|
E|---3-----------------1-----------3----3------|
   I wish I were with you, I couldn't stay
   G2    Am        F        G1
   Every direction leads me away
   G2    Am           F        G1
   Pray for tomorrow, but for today

    F    Em     C
e|---1----0-------0----0------------------------------|
B|---1----0-------1----1------------------------------|
G|---2----0-------0----0------------------------------|
D|---3----2-------2----2------------------------------|
A|---3----2-----3----3--------------------------------|
E|-1-1--0-0-------------------------------------------|
   All I want is to be home
e|----------|
B|----------|
G|----------|
D|----0----0|
A|--2----2--|
E|--3----3--|

G2    Am              F        G1
Stand in the mirror, you look the same
G2    Am                     F             G1
(Just) looking for shelter, from the cold and the pain
G2    Am           F        G1
Someone to cover, safe from the rain

   F     Em      C (same pattern as before)
'n' All I want is to be home

(Strum softly, can do the same pattern as before)
G          Am        F        G
Echoes and silence, patience and grace
G         Am         F        G
All of these moments I'll never replace
G        Am         F        G
Fear of my heart, absence of faith

F     Em      C
All I want is to be home. ooh
(BRidge)
G2    Am        F        G1 (X3)

F     Em         G
All I want is to be home

e|--------------------|
B|--------------------|
G|--------------------|
D|----0----0----0----0|
A|--2----2----2----2--|
E|--3----3----3----3--|

G2         Am        F        G1
People I've loved, I have no regrets
G2        Am      F        G1
Some I remember, some I forget
G2          Am        F        G1
Some of them living, some of them dead

F     Em      C.
All I want is to be home.

Hope you enjoyed it.
=============================================================================
Once And For All Tab by Foo Fighters, www.Ultimate-Guitar.Com

Hey everyone.  This is the bonus track off of "Echoes, Silence,
Patience and Grace". Its not on my version of the cd, I dont know
if a certain version has it but i got it off of itunes instead.
It has a really catchy riff.  I dont know why it didnt make 
cd...anyways here is my attempt at the tab.  I think its pretty 
accurate.  Let me know if you have any corrections.  Thanks :)


Foo Fighters
Once & for All


intro/verse
e-----------------------------------------------------------------|
B-----------------------------------------------------------------|
G--0-0--4-0-0-0---------------------------------------------------|
D---------------0-0-4h5-4-0-0-0-----------------------------------|
A-------------------------------0-0-0-4-0-0-0-0-0--4h5-4-0-0-0----|
E-----------------------------------------------------------------|

chorus
e-3-3-3-3-2-2-2-2-0-0-0-0--0-0-0-----3-3-3-3-2-2-2-2-0-0-0-------0--3-3-3-|
B-3-3-3-3-3-3-3-3-2-2-2-0--0-0-0-----3-3-3-3-3-3-3-3-2-2-2-4-4-4-2--3-3-3-|
G-0-0-0-0-2-2-2-2-2-2-2-1--1-1-1-----0-0-0-0-2-2-2-2-2-2-2-4-4-4-2--0-0-0-|
D-0-0-0-0-0-0-0-0-2-2-2-2--2-2-2-----0-0-0-0-0-0-0-0-2-2-2-4-4-4-2--0-0-0-|
A-2-2-2-2---------0-0-0-2--2-2-2-----2-2-2-2---------0-0-0-2-2-2-0--2-2-2-|
E-3-3-3-3---------0-0-0-0--0-0-0-x2--3-3-3-3---------0-0-0-------0--3-3-3-|

3-2-2-2-0--0-0-0-0-0--0-0-0-0-3-3-3-3-2-2-2-0--0-0-0-0-0--0-0-0-0-|
3-3-3-3-2--2h3-2-2-2--2h3-2-2-3-3-3-3-3-3-3-2--2h3-2-2-2--2h3-2-2-|
0-2-2-2-2--2-2-2-2-2--2-2-2-2-0-0-0-0-2-2-2-2--2-2-2-2-2--2-2-2-2-|
0-0-0-0-2--2-2-2-2-2--2-2-2-2-0-0-0-0-0-0-0-2--2-2-2-2-2--2-2-2-2-|
2-------0--0-0-0-0-0--0-0-0-0-2-2-2-2-------0--0-0-0-0-0--0-0-0-0-|
3-------0--0-0-0-0-0--0-0-0-0-3-3-3-3-------0--0-0-0-0-0--0-0-0-0-|

verse

chorus

bridge
e--------------------------------------------------------------------------|
B--------------------------------------------------------------------------|
G-------------------------------------------------------9-------------7-7-7|
D-9-9-9-9-9-9-9-9-12-12-12-12-12-12-12-12-7-7-7-7-7-7-7-9-----5-5-5-5-7-7-7|
A-9-9-9-9-9-9-9-9-12-12-12-12-12-12-12-12-7-7-7-7-7-7-7-7-----5-5-5-5-5-5-5|
E-7-7-7-7-7-7-7-7-10-10-10-10-10-10-10-10-5-5-5-5-5-5-5-----2-3-3-3-3------|
                                                           (palm mute-->)
-------------------------|
-2-2h3-2-2-2--2h3-2-2----|
-2-2-2-2-2-2--2-2-2-2----|
-2-2-2-2-2-2--2-2-2-2----|
-------------------------|
-------------------------|x4

then until the end its G D A and end on E


great song...gotta love that foo.
=============================================================================
=============================================================================
comments
print report bad tab
6 comments total. Showing first comments.
+1 reply
CrowLord wrote on June 2 2008, 11:57 am

Looks pretty good, but ive just skimmed over it

+1 reply
elliott06 wrote on June 2 2008, 01:37 pm

Very Nice my friend.

GO FOO!

+1 reply
_InsanitY_ wrote on June 2 2008, 01:51 pm

pretender is wrong A minor is played as a barre chord on the fifth fret, open A minor doesnt sound right

I want to post or [tab]
guest
You may want to rate the tab now too:
select rating
Please do not post tabs as comments. Select "correction" instead!