Oops, an error
Loading. Please wait.

Everlong Acoustic Tab

ver4
ver4
More versions @911Tabs.com
20,318 views 9 this week
no commentswrite comment
1 2 3 4 5
accurate
x 3
add to favorites launch autoscroll
font size
0
reset
Autoscroll
+/-
esc
set tempo
stop
Contributor
WARNING: You are trying to view
                                    content from Ultimate-Guitar.com
                                    in an unauthorized application,
                                    which is prohibited.

                                    Please use an official Ultimate
                                    Guitar Tabs application for iPhone,
                                    iPad or Android to access legitimate
                                    chords, guitar, bass, and drum tabs
                                    from Ultimate-Guitar.com database.

                                    Type "ultimate guitar tabs" in Apple
                                    App Store's or Android Market's
                                    search to find the application.
            Everlong (Acoustic)              
Foo Fighters

Email Questions Or Comments To jguitar96@aim.com


            ^      ^   ^      ^   
     E  E   E  E   E   E  E   E   
E||------------------------------|
B||------------------------------|
G||------------------------------|
D||--------11-----11--11-----11--|
A||---------9------9---9------9--|
D||--0--0---0--0---0---0--0---0--|


         ^      ^   ^   ^      
  E  E   E  E   E   E   E  E   
------------------------------|
------------------------------|
------------------------------|
--------11-----11--11--11-----|
---------9------9---9---9--0--|
--0--0---0--0---0---0---0--0--|


         ^      ^   ^      ^   
  E  E   E  E   E   E  E   E   
------------------------------|
------------------------------|
------------------------------|
--------11-----11--11-----11--|
---------9------9---9------9--|
--9--9---9--9---9---9--9---9--|


         ^      ^   ^   ^      
  E  E   E  E   E   E   E  E   
------------------------------|
------------------------------|
------------------------------|
--------11-----11--11--11-----|
---------9------9---9---9--0--|
--9--9---9--9---9---9---9--0--|


        ^           ^       
  E  E  E  E  E  E  E  E    
---------------------------|
---------------------------|
---------------------------|
--------7-----------7------|
--------5-----------5------|
--5--5--5--5--5--5--5--5S--|


         ^            ^      
  E  E   E  E  E  E   E  E   
----------------------------|
----------------------------|
----------------------------|
--------11-----------11-----|
---------9------------9-----|
--9--9---9--9--9--9---9--9--|


         ^            ^      
  E  E   E  E  E  E   E  E   
----------------------------|
----------------------------|
----------------------------|
--------11-----------11-----|
---------9------------9-----|
--9--9---9--9--9--9---9--9--|


  Hello                           
            ^      ^   ^      ^   
  E     E   E  E   E   E  E   E   
---------------------------------|
---------------------------------|
---------------------------------|
-----------11-----11--11-----11--|
------------9------9---9------9--|
--0-----0---0--0---0---0--0---0--|


                    I've        
         ^      ^   ^    ^      
  E  E   E  E   E   E    E  E   
-------------------------------|
-------------------------------|
-------------------------------|
--------11-----11--11---11-----|
---------9------9---9----9--0--|
--0--0---0--0---0---0----0--0--|


  wai-     ted here      for    you 
           ^        ^   ^      ^   
  E    E   E  E     E   E  E   E   
----------------------------------|
----------------------------------|
----------------------------------|
----------11-------11--11-----11--|
-----------9--------9---9------9--|
--9----9---9--9-----9---9--9---9--|


         ^      ^   ^   ^      
  E  E   E  E   E   E   E  E   
------------------------------|
------------------------------|
------------------------------|
--------11-----11--11--11-----|
---------9------9---9---9--0--|
--9--9---9--9---9---9---9--0--|


            e                      ver-      
  ^    v  ^                             v  ^ 
  Q    E  Q                             E  E 
---------------------------------------------
---------------------------------------------
---------------------------------------------
--7----7--7-----------------------------7--7-
--5----5--5-----------------------------5--5-
--5----5--5-----------------------------5--5-


      long                       
   ^       ^     ^   v   ^   v   
   Q       Q     E   E   E   E   
--------------------------------|
--------------------------------|
--------------------------------|
--11------11----11--11--11--11--|
---9-------9-----9---9---9---9--|
---9-------9-----9---9---9---9--|


       ^   v   ^     v   ^  v   
   E   E   E   Q     E   E  E   
-------------------------------|
-------------------------------|
-------------------------------|
---L--11--11--11----11--11-----|
---L---9---9---9-----9---9--0--|
---L---9---9---9-----9---9--0--|


  To-              nite         
          ^              ^      
  E   E   E  E  E  E     E  E   
-------------------------------|
-------------------------------|
-------------------------------|
---------11-------------11-----|
----------9--------------9-----|
--0---0---0--0--0--0-----0--0--|


                  I've         
         ^              ^      
  E  E   E  E  E  E     E  E   
------------------------------|
------------------------------|
------------------------------|
--------11-------------11-----|
---------9--------------9--0--|
--0--0---0--0--0--0-----0--0--|


  thrown my-        self in     too  
              ^              ^       
  Q           E  E  E    E   E  E    
------------------------------------|
------------------------------------|
------------------------------------|
-------------11-------------11------|
--------------9--------------9------|
--9-----------9--9--9----9---9--9---|


         ^      ^   ^   ^      
  E  E   E  E   E   E   E  E   
------------------------------|
------------------------------|
------------------------------|
--------11-----11--11--11-----|
---------9------9---9---9--0--|
--L--9---9--9---9---9---9--0--|


            and out of the red           
  ^    v  ^                    v  ^  v   
  Q    E  Q                    E  E  E   
----------------------------------------|
----------------------------------------|
----------------------------------------|
--7----7--7--------------------7--7--7--|
--5----5--5--------------------5--5--5--|
--5----5--5--------------------5--5--5--|


               out of her    head            
   ^     ^     ^                  v   ^   v  
   Q     Q     E                  E   E   E  
---------------------------------------------
---------------------------------------------
---------------------------------------------
--11----11----11-----------------11--11--11--
---9-----9-----9------------------9---9---9--
---9-----9-----9------------------9---9---9--


       she     sang             
       ^   v   ^     v   ^  v   
   E   E   E   Q     E   E  E   
-------------------------------|
-------------------------------|
-------------------------------|
---L--11--11--11----11--11-----|
---L---9---9---9-----9---9--0--|
---L---9---9---9-----9---9--0--|


         ^      ^   ^      ^   
  E  E   E  E   E   E  E   E   
------------------------------|
------------------------------|
------------------------------|
--------11-----11--11-----11--|
---------9------9---9------9--|
--0--0---0--0---0---0--0---0--|


         ^      ^   ^   ^      
  E  E   E  E   E   E   E  E   
------------------------------|
------------------------------|
------------------------------|
--------11-----11--11--11-----|
---------9------9---9---9--0--|
--0--0---0--0---0---0---0--0--|


         ^      ^   ^      ^   
  E  E   E  E   E   E  E   E   
------------------------------|
------------------------------|
------------------------------|
--------11-----11--11-----11--|
---------9------9---9------9--|
--9--9---9--9---9---9--9---9--|


         ^      ^   ^   ^      
  E  E   E  E   E   E   E  E   
------------------------------|
------------------------------|
------------------------------|
--------11-----11--12--11-----|
---------9------9---9---9--0--|
--9--9---9--9---9---9---9--0--|


  ^    ^  v  ^  v  ^  v   
  Q    E  E  E  E  E  E   
-------------------------|
-------------------------|
-------------------------|
--7----7--7--7--7--7--7--|
--5----5--5--5--5--5--5--|
--5----5--5--5--5--5--5--|


   ^   v   ^   v   ^   v   ^   v   
   E   E   E   E   E   E   E   E   
----------------------------------|
----------------------------------|
----------------------------------|
--11--11--11--11--11--11--11--11--|
---9---9---9---9---9---9---9---9--|
---9---9---9---9---9---9---9---9--|


   ^   v   ^   v   ^   v   ^  ^   
   E   E   E   E   E   E   E  E   
---------------------------------|
---------------------------------|
---------------------------------|
--11--11--11--11--11--11--11-----|
---9---9---9---9---9---9---9--0--|
---9---9---9---9---9---9---9--0--|


  come             down            
           ^                ^      
  E    E   E  E  E      E   E  E   
----------------------------------|
----------------------------------|
----------------------------------|
----------11---------------11-----|
-----------9----------------9-----|
--0----0---0--0--0------0---0--0--|


                    and         
         ^               ^      
  E  E   E  E  E  E      E  E   
-------------------------------|
-------------------------------|
-------------------------------|
--------11--------------11-----|
---------9---------------9--0--|
--0--0---0--0--0--0------0--0--|


  waste  a- way    with     me  
         ^               ^      
  Q      E  E   E  E     E  E   
-------------------------------|
-------------------------------|
-------------------------------|
--------11--------------11-----|
---------9---------------9-----|
--9------9--9---9--9-----9--9--|


         ^      ^   ^   ^      
  E  E   E  E   E   E   E  E   
------------------------------|
------------------------------|
------------------------------|
--------11-----11--11--11-----|
---------9------9---9---9--0--|
--L--9---9--9---9---9---9--0--|


             down       with  
  ^    v  ^       v  ^  v     
  Q    E  Q       E  E  E     
-----------------------------|
-----------------------------|
-----------------------------|
--7----7--7-------7--7--7----|
--5----5--5-------5--5--5----|
--5----5--5-------5--5--5----|


        me                       
   ^       ^     ^   v   ^   v   
   Q       Q     E   E   E   E   
--------------------------------|
--------------------------------|
--------------------------------|
--11------11----11--11--11--11--|
---9-------9-----9---9---9---9--|
---9-------9-----9---9---9---9--|


       ^   v   ^     v   ^  v   
   E   E   E   Q     E   E  E   
-------------------------------|
-------------------------------|
-------------------------------|
---L--11--11--11----11--11-----|
---L---9---9---9-----9---9--0--|
---L---9---9---9-----9---9--0--|


  Slow                how            
            ^                 ^      
  E     E   E  E  E       E   E  E   
------------------------------------|
------------------------------------|
------------------------------------|
-----------11----------------11-----|
------------9-----------------9-----|
--0-----0---0--0--0-------0---0--0--|


                    You've         
         ^                  ^      
  E  E   E  E  E  E         E  E   
----------------------------------|
----------------------------------|
----------------------------------|
--------11-----------------11-----|
---------9------------------9--0--|
--0--0---0--0--0--0---------0--0--|


  wan-  ted it    to      be  
        ^   v                 
  Q     E   Q     E   E   E   
-----------------------------|
-----------------------------|
-----------------------------|
-------11--11----11--11--11--|
--------9---9-----9---9---9--|
--9-----9---9-----9---9---9--|


         ^     ^   ^   ^      
  E  E   Q     E   E   E  E   
-----------------------------|
-----------------------------|
-----------------------------|
--L-----11----11--11--11-----|
--L------9-----9---9---9--0--|
--L--9---9-----9---9---9--0--|


             i'm over    my head  
  ^    v  ^           v  ^  v     
  Q    E  Q           E  E  E     
---------------------------------|
---------------------------------|
---------------------------------|
--7----7--7-----------7--7--7----|
--5----5--5-----------5--5--5----|
--5----5--5-----------5--5--5----|


                out of  her head 
   ^     v   ^      v   ^   v    
   Q     E   Q      E   E   E    
--------------------------------|
--------------------------------|
--------------------------------|
--11----11--11-----11--11--11---|
---9-----9---9------9---9---9---|
---9-----9---9------9---9---9---|


       she     sang             
       ^   v   ^     v   ^  v   
   E   E   E   Q     E   E  E   
-------------------------------|
-------------------------------|
-------------------------------|
---L--11--11--11----11--11-----|
---L---9---9---9-----9---9--0--|
---L---9---9---9-----9---9--0--|


   ^   v   ^   v   ^  v  ^  v   
   E   E   E   E   E  E  E  E   
-------------------------------|
-------------------------------|
---6---6---6---7---7--7--9--9--|
---x---x---x---x---x--x--x--x--|
---4---4---4---5---5--5--7--7--|
---0---0---0---0---0--0--0--0--|


   ^   v   ^   v   ^    v  ^  v   
   E   E   E   E   E    E  E  E   
---------------------------------|
---------------------------------|
---9--11--11--11--11S--12-----9--|
---x---x---x---x---x----------7--|
---7---9---9---9---9S--10--0--7--|
---0---0---0---0---0-------0--7--|


                 and        
  E  E  Q    E  E    E  E   
---------------------------|
---------------------------|
--L--9--9----9--9----9-----|
--L--7--7----7--7----7-----|
--L--7--7----7--7----7--0--|
--L--7--7----7--7----7--0--|


   I           won-    der        
   ^   v   ^   v    ^  v   ^  v   
   E   E   E   E    E  E   E  E   
---------------------------------|
---------------------------------|
---6---6---6---7----7--7---9--9--|
---x---x---x---x----x--x---x--x--|
---4---4---4---5----5--5---7--7--|
---0---0---0---0----0--0---0--0--|


   ^   v   ^   v   ^    v  ^  v   
   E   E   E   E   E    E  E  E   
---------------------------------|
---------------------------------|
---9--11--11--11--11S--12-----9--|
---x---x---x---x---x----------7--|
---7---9---9---9---9S--10--0--7--|
---0---0---0---0---0-------0--7--|


           when  I  sing  a-              
  E  E  Q                    E  E  E  E   
-----------------------------------------|
-----------------------------------------|
--L--9--9--------------------9--9--9-----|
--L--7--7--------------------7--7--7-----|
--L--7--7--------------------7--7--7--0--|
--L--7--7--------------------7--7--7--0--|


   long     with you              
   ^    v   ^    v   ^  v  ^  v   
   E    E   E    E   E  E  E  E   
---------------------------------|
---------------------------------|
---6----6---6----7---7--7--9--9--|
---x----x---x----x---x--x--x--x--|
---4----4---4----5---5--5--7--7--|
---0----0---0----0---0--0--0--0--|


   ^   v   ^   v   ^    v  ^   v   
   E   E   E   E   E    E  E   E   
----------------------------------|
----------------------------------|
---9--11--11--11--11S--12-----11--|
---x---x---x---x---x-----------9--|
---7---9---9---9---9S--10--0---9--|
---0---0---0---0---0-------0---9--|


        If everything could ever             
  E   E                          Q     E   E 
---------------------------------------------
---------------------------------------------
--L--11-------------------------11----11--11-
--L---9--------------------------9-----9---9-
--L---9--------------------------9-----9---9-
--L---9--------------------------9-----9---9-


       this real           forever        
  E  E           Q    E  E         E  E   
-----------------------------------------|
--------------------------------------3--|
--L--7-----------7----7--7------------2--|
--L--5-----------5----5--5---------0--0--|
--L--5-----------5----5--5---------0--0--|
--L--5-----------5----5--5---------0--0--|


  E  E  Q    E  E  E  E   
-------------------------|
--L--3--3----3--3--3--3--|
--L--2--2----0--2--2--2--|
--L--0--0----0--0--0--0--|
--L--0--0----0--0--0--0--|
--L--0--0----0--0--0--0--|


  E  E  Q    E  E  E   E   
--------------------------|
--L--3--3----3--3---------|
--L--2--2----2--2-----11--|
--L--0--0----0--0--0---9--|
--L--0--0----0--0--0---9--|
--L--0--0----0--0--0---9--|


         If anything  could  ever     be     
  E   E                                   Q  
---------------------------------------------
---------------------------------------------
--L--11----------------------------------11--
--L---9-----------------------------------9--
--L---9-----------------------------------9--
--L---9-----------------------------------9--


         this good              again        
  E  E                                Q    E 
---------------------------------------------
---------------------------------------------
--L--7--------------------------------7----7-
--L--5--------------------------------5----5-
--L--5--------------------------------5----5-
--L--5--------------------------------5----5-


  E  E  Q    E  E  E  E   
-------------------------|
--L--3--3----3--3--3--3--|
--L--2--2----0--2--2--2--|
--L--0--0----0--0--0--0--|
--L--0--0----0--0--0--0--|
--L--0--0----0--0--0--0--|


  E  E  Q    E  E  E   E   
--------------------------|
--L--3--3----3--3---------|
--L--2--2----2--2-----11--|
--L--0--0----0--0--0---9--|
--L--0--0----0--0--0---9--|
--L--0--0----0--0--0---9--|


          only thing i'll     ever           
  E   E                            Q     E   
---------------------------------------------
---------------------------------------------
--L--11---------------------------11----11--1
--L---9----------------------------9-----9---
--L---9----------------------------9-----9---
--L---9----------------------------9-----9---


  ask of you                      
  E          E  Q    E  E  E  E   
---------------------------------|
------------------------------3--|
--L----------7--7----7--7-----2--|
--L----------5--5----5--5--0--0--|
--L----------5--5----5--5--0--0--|
--L----------5--5----5--5--0--0--|


         gotta promise            not to     
  E  E                 Q    E  E  E      E   
--------------------------------------------|
--L--3-----------------3----3--3------------|
--L--2-----------------2----2--2---------9--|
--L--0-----------------0----0--0--0------7--|
--L--0-----------------0----0--0--0------7--|
--L--0-----------------0----0--0--0------7--|


  stop    when    I say        
  E    E  Q    E  E     E  E   
------------------------------|
------------------------------|
--L----9--9----9--9-----9-----|
--L----7--7----7--7-----7--0--|
--L----7--7----7--7-----7--0--|
--L----7--7----7--7-----7--0--|


     when                   
  Q       E  Q    E  E  E   
---------------------------|
---------------------------|
--7-------7--7----7--7--7--|
--5-------5--5----5--5--5--|
--5-------5--5----5--5--5--|
--5-------5--5----5--5--5--|


          she sang              
  E  E  Q          E  E  E  E   
-------------------------------|
-------------------------------|
--L--7--7----------7--7--7-----|
--L--5--5----------5--5--5-----|
--L--5--5----------5--5--5--0--|
--L--5--5----------5--5--5--0--|


         ^      ^   ^      ^   
  E  E   E  E   E   E  E   E   
------------------------------|
------------------------------|
------------------------------|
--------11-----11--11-----11--|
---------9------9---9------9--|
--0--0---0--0---0---0--0---0--|


         ^      ^   ^   ^      
  E  E   E  E   E   E   E  E   
------------------------------|
------------------------------|
------------------------------|
--------11-----11--11--11-----|
---------9------9---9---9--0--|
--0--0---0--0---0---0---0--0--|


         ^      ^   ^      ^   
  E  E   E  E   E   E  E   E   
------------------------------|
------------------------------|
------------------------------|
--------11-----11--11-----11--|
---------9------9---9------9--|
--9--9---9--9---9---9--9---9--|


         ^      ^   ^   ^      
  E  E   E  E   E   E   E  E   
------------------------------|
------------------------------|
------------------------------|
--------11-----11--11--11-----|
---------9------9---9---9--0--|
--9--9---9--9---9---9---9--0--|


  ^    ^    v  ^  v  ^    
  Q    Q    E  E  E  E    
-------------------------|
-------------------------|
-------------------------|
--7----7----7--7--7--7S--|
--5----5----5--5--5--5S--|
--5----5----5--5--5--5S--|


   ^   v   ^   v   ^   v   ^   v   
   E   E   E   E   E   E   E   E   
----------------------------------|
----------------------------------|
----------------------------------|
--11--11--11--11--11--11--11--11--|
---9---9---9---9---9---9---9---9--|
---9---9---9---9---9---9---9---9--|


   ^   v   ^   v   ^   v   ^  ^   
   E   E   E   E   E   E   E  E   
---------------------------------|
---------------------------------|
---------------------------------|
--11--11--11--11--11--11--11-----|
---9---9---9---9---9---9---9--0--|
---9---9---9---9---9---9---9--0--|


  Breathe            out             
              ^      ^   v   ^   v   
  E       E   E  E   E   E   E   E   
------------------------------------|
------------------------------------|
------------------------------------|
-------------11-----11--11--11--11--|
--------------9------9---9---9---9--|
--0-------0---0--0---0---0---0---0--|


                     so         
   ^   v   ^   v     ^   v  ^   
   E   E   E   Q     E   E  E   
-------------------------------|
-------------------------------|
-------------------------------|
--11--11--11--11----11--11-----|
---9---9---9---9-----9---9--0--|
---0---0---0---0-----0---0--0--|


   I     can breathe you in                 
   ^     ^                  v     ^   v     
   Q     E                  Q     E   Q     
-------------------------------------------|
-------------------------------------------|
-------------------------------------------|
--11----11-----------------11----11--11----|
---9-----9------------------9-----9---9----|
---9-----9------------------9-----9---9----|


   ^   v   ^   v     ^   ^      
   E   E   E   Q     E   E  E   
-------------------------------|
-------------------------------|
-------------------------------|
--11--11--11--11----11--11-----|
---9---9---9---9-----9---9--0--|
---9---9---9---9-----9---9--0--|


               hold       you  
  ^    ^  v         ^  v  ^    
  Q    E  Q         E  E  E    
------------------------------|
------------------------------|
------------------------------|
--7----7--7---------7--7------|
--5----5--5---------5--5--0---|
--5----5--5---------5--5--0---|


        in                       
   ^       ^   v     ^   v   ^   
   Q       E   Q     E   E   E   
--------------------------------|
--------------------------------|
--------------------------------|
--11------11--11----11--11--11--|
---9-------9---9-----9---9---9--|
---9-------9---9-----9---9---9--|


       v   ^   v     ^   v  ^   
   E   E   E   Q     E   E  E   
-------------------------------|
-------------------------------|
-------------------------------|
---L--11--11--11----11--11-----|
---L---9---9---9-----9---9--0--|
---L---9---9---9-----9---9--0--|


  and            now             
          ^      ^   v   ^   v   
  E   E   E  E   E   E   E   E   
--------------------------------|
--------------------------------|
--------------------------------|
---------11-----11--11--11--11--|
----------9------9---9---9---9--|
--0---0---0--0---0---0---0---0--|


                       I          
       ^   v   ^   v   ^   v  ^   
   E   E   E   E   E   E   E  E   
---------------------------------|
---------------------------------|
---------------------------------|
---L--11--11--11--11--11--11-----|
---L---9---9---9---9---9---9--0--|
---L---0---0---0---0---0---0--0--|


   know  you've       always         been 
   ^     ^      v            ^   v   ^    
   Q     E      Q            E   E   E    
-----------------------------------------|
-----------------------------------------|
-----------------------------------------|
--11----11-----11-----------11--11--11---|
---9-----9------9------------9---9---9---|
---9-----9------9------------9---9---9---|


       ^   v   ^   v   ^   v  ^   
   E   E   E   E   E   E   E  E   
---------------------------------|
---------------------------------|
---------------------------------|
---L--11--11--11--11--11--11-----|
---L---9---9---9---9---9---9--0--|
---L---9---9---9---9---9---9--0--|


               out of    your head     
  ^    ^  v           ^  v         ^   
  Q    E  Q           E  E         E   
--------------------------------------|
--------------------------------------|
--------------------------------------|
--7----7--7-----------7--7------------|
--5----5--5-----------5--5---------0--|
--5----5--5-----------5--5---------0--|


                out  of  my  head            
   ^     ^   v                    ^   v   ^  
   Q     E   Q                    E   E   E  
---------------------------------------------
---------------------------------------------
---------------------------------------------
--11----11--11-------------------11--11--11--
---9-----9---9--------------------9---9---9--
---9-----9---9--------------------9---9---9--


      I      sang                  
   v    ^   v     ^     ^   v  ^   
   E    E   E     Q     E   E  E   
----------------------------------|
----------------------------------|
----------------------------------|
--11---11--11----11----11--11-----|
---9----9---9-----9-----9---9--0--|
---9----9---9-----9-----9---9--0--|


   ^   v   ^   v   ^  v  ^  v   
   E   E   E   E   E  E  E  E   
-------------------------------|
-------------------------------|
---6---6---6---7---7--7--9--9--|
---x---x---x---x---x--x--x--x--|
---4---4---4---5---5--5--7--7--|
---0---0---0---0---0--0--0--0--|


   ^   v   ^   v   ^    v  ^  v   
   E   E   E   E   E    E  E  E   
---------------------------------|
---------------------------------|
---9--11--11--11--11S--12-----9--|
---x---x---x---x---x----------7--|
---7---9---9---9---9S--10--0--7--|
---0---0---0---0---0-------0--7--|


                 and        
  E  E  Q    E  E    E  E   
---------------------------|
---------------------------|
--L--9--9----9--9----9-----|
--L--7--7----7--7----7-----|
--L--7--7----7--7----7--0--|
--L--7--7----7--7----7--0--|


   I           won-    der        
   ^   v   ^   v    ^  v   ^  v   
   E   E   E   E    E  E   E  E   
---------------------------------|
---------------------------------|
---6---6---6---7----7--7---9--9--|
---x---x---x---x----x--x---x--x--|
---4---4---4---5----5--5---7--7--|
---0---0---0---0----0--0---0--0--|


   ^   v   ^   v   ^    v  ^  v   
   E   E   E   E   E    E  E  E   
---------------------------------|
---------------------------------|
---9--11--11--11--11S--12-----9--|
---x---x---x---x---x----------7--|
---7---9---9---9---9S--10--0--7--|
---0---0---0---0---0-------0--7--|


           when  I  sing  a-              
  E  E  Q                    E  E  E  E   
-----------------------------------------|
-----------------------------------------|
--L--9--9--------------------9--9--9-----|
--L--7--7--------------------7--7--7-----|
--L--7--7--------------------7--7--7--0--|
--L--7--7--------------------7--7--7--0--|


   long     with you              
   ^    v   ^    v   ^  v  ^  v   
   E    E   E    E   E  E  E  E   
---------------------------------|
---------------------------------|
---6----6---6----7---7--7--9--9--|
---x----x---x----x---x--x--x--x--|
---4----4---4----5---5--5--7--7--|
---0----0---0----0---0--0--0--0--|


   ^   v   ^   v   ^    v  ^   v   
   E   E   E   E   E    E  E   E   
----------------------------------|
----------------------------------|
---9--11--11--11--11S--12-----11--|
---x---x---x---x---x-----------9--|
---7---9---9---9---9S--10--0---9--|
---0---0---0---0---0-------0---9--|


        If everything could ever             
  E   E                          Q     E   E 
---------------------------------------------
---------------------------------------------
--L--11-------------------------11----11--11-
--L---9--------------------------9-----9---9-
--L---9--------------------------9-----9---9-
--L---9--------------------------9-----9---9-


       this real           forever        
  E  E           Q    E  E         E  E   
-----------------------------------------|
--------------------------------------3--|
--L--7-----------7----7--7------------2--|
--L--5-----------5----5--5---------0--0--|
--L--5-----------5----5--5---------0--0--|
--L--5-----------5----5--5---------0--0--|


  E  E  Q    E  E  E  E   
-------------------------|
--L--3--3----3--3--3--3--|
--L--2--2----2--2--2--2--|
--L--0--0----0--0--0--0--|
--L--0--0----0--0--0--0--|
--L--0--0----0--0--0--0--|


  E  E  E  E  E  E  E   E   
---------------------------|
--3--3--3--3--3--3---------|
--2--2--2--2--2--2-----11--|
--0--0--0--0--0--0--0---9--|
--0--0--0--0--0--0--0---9--|
--0--0--0--0--0--0--0---9--|


         If anything  could  ever     be     
  E   E                                   Q  
---------------------------------------------
---------------------------------------------
--L--11----------------------------------11--
--L---9-----------------------------------9--
--L---9-----------------------------------9--
--L---9-----------------------------------9--


         this good              again        
  E  E                                Q    E 
---------------------------------------------
---------------------------------------------
--L--7--------------------------------7----7-
--L--5--------------------------------5----5-
--L--5--------------------------------5----5-
--L--5--------------------------------5----5-


  E  E  Q    E  E  E  E   
-------------------------|
--L--3--3----3--3--3--3--|
--L--2--2----2--2--2--2--|
--L--0--0----0--0--0--0--|
--L--0--0----0--0--0--0--|
--L--0--0----0--0--0--0--|


  E  E  E  E  E  E  E   E   
---------------------------|
--3--3--3--3--3--3---------|
--2--2--2--2--2--2-----11--|
--0--0--0--0--0--0--0---9--|
--0--0--0--0--0--0--0---9--|
--0--0--0--0--0--0--0---9--|


          only thing i'll     ever           
  E   E                            Q     E   
---------------------------------------------
---------------------------------------------
--L--11---------------------------11----11--1
--L---9----------------------------9-----9---
--L---9----------------------------9-----9---
--L---9----------------------------9-----9---


  ask of you                      
  E          E  Q    E  E  E  E   
---------------------------------|
------------------------------3--|
--L----------7--7----7--7-----2--|
--L----------5--5----5--5--0--0--|
--L----------5--5----5--5--0--0--|
--L----------5--5----5--5--0--0--|


         gotta promise            not to     
  E  E                 Q    E  E  E      E   
--------------------------------------------|
--L--3-----------------3----3--3------------|
--L--2-----------------2----2--2---------9--|
--L--0-----------------0----0--0--0------7--|
--L--0-----------------0----0--0--0------7--|
--L--0-----------------0----0--0--0------7--|


  stop    when    I say        
  E    E  Q    E  E     E  E   
------------------------------|
------------------------------|
--L----9--9----9--9-----9-----|
--L----7--7----7--7-----7--0--|
--L----7--7----7--7-----7--0--|
--L----7--7----7--7-----7--0--|


     when                   
  Q       E  Q    E  E  E   
---------------------------|
---------------------------|
--7-------7--7----7--7--7--|
--5-------5--5----5--5--5--|
--5-------5--5----5--5--5--|
--5-------5--5----5--5--5--|


          she sang              
  E  E  Q          E  E  E  E   
-------------------------------|
-------------------------------|
--L--7--7----------7--7--7-----|
--L--5--5----------5--5--5-----|
--L--5--5----------5--5--5--0--|
--L--5--5----------5--5--5--0--|


         ^      ^   ^      ^   
  E  E   E  E   E   E  E   E   
------------------------------|
------------------------------|
------------------------------|
--------11-----11--11-----11--|
---------9------9---9------9--|
--0--0---0--0---0---0--0---0--|


         ^      ^   ^   ^      
  E  E   E  E   E   E   E  E   
------------------------------|
------------------------------|
------------------------------|
--------11-----11--11--11-----|
---------9------9---9---9--0--|
--0--0---0--0---0---0---0--0--|


         ^      ^   ^      ^   
  E  E   E  E   E   E  E   E   
------------------------------|
------------------------------|
------------------------------|
--------11-----11--11-----11--|
---------9------9---9------9--|
--9--9---9--9---9---9--9---9--|


         ^      ^   ^   ^      
  E  E   E  E   E   E   E  E   
------------------------------|
------------------------------|
------------------------------|
--------11-----11--11--11-----|
---------9------9---9---9--0--|
--9--9---9--9---9---9---9--0--|


  ^  v  ^  v  ^  v  ^  v    
  E  E  E  E  E  E  E  E    
---------------------------|
---------------------------|
---------------------------|
--7--7--7--7--7--7--7--7S--|
--5--5--5--5--5--5--5--5S--|
--5--5--5--5--5--5--5--5S--|


   ^   v   ^   v   ^   v   ^   v   
   E   E   E   E   E   E   E   E   
----------------------------------|
----------------------------------|
----------------------------------|
--11--11--11--11--11--11--11--11--|
---9---9---9---9---9---9---9---9--|
---9---9---9---9---9---9---9---9--|


   ^   v   ^   v   ^   v   ^  ^   
   E   E   E   E   E   E   E  E   
---------------------------------|
---------------------------------|
---------------------------------|
--11--11--11--11--11--11--11-----|
---9---9---9---9---9---9---9--0--|
---9---9---9---9---9---9---9--0--|


   ^   v   ^   v   ^  v  ^  v   
   E   E   E   E   E  E  E  E   
-------------------------------|
-------------------------------|
---6---6---6---7---7--7--9--9--|
---x---x---x---x---x--x--x--x--|
---4---4---4---5---5--5--7--7--|
---0---0---0---0---0--0--0--0--|


   ^   v   ^   v   ^    v  ^  v   
   E   E   E   E   E    E  E  E   
---------------------------------|
---------------------------------|
---9--11--11--11--11S--12--------|
---x---x---x---x---x-------------|
---7---9---9---9---9S--10--0--0--|
---0---0---0---0---0-------0--0--|


   ^   v   ^   v   ^  v  ^  v   
   E   E   E   E   E  E  E  E   
-------------------------------|
-------------------------------|
---6---6---6---7---7--7--9--9--|
---x---x---x---x---x--x--x--x--|
---4---4---4---5---5--5--7--7--|
---0---0---0---0---0--0--0--0--|


   ^   v   ^   v   ^    v  ^  v   
   E   E   E   E   E    E  E  E   
---------------------------------|
---------------------------------|
---9--11--11--11--11S--12--------|
---x---x---x---x---x-------------|
---7---9---9---9---9S--10--0--0--|
---0---0---0---0---0-------0--0--|


   ^   v   ^   v   ^  v  ^  v   
   E   E   E   E   E  E  E  E   
-------------------------------|
-------------------------------|
---6---6---6---7---7--7--9--9--|
---x---x---x---x---x--x--x--x--|
---4---4---4---5---5--5--7--7--|
---0---0---0---0---0--0--0--0--|


   ^   v   ^   v   ^    v  ^  v   
   E   E   E   E   E    E  E  E   
---------------------------------|
---------------------------------|
---9--11--11--11--11S--12--------|
---x---x---x---x---x-------------|
---7---9---9---9---9S--10--0--0--|
---0---0---0---0---0-------0--0--|


   ^   v   ^   v   ^  v  ^  v   
   E   E   E   E   E  E  E  E   
-------------------------------|
-------------------------------|
---6---6---6---7---7--7--9--9--|
---x---x---x---x---x--x--x--x--|
---4---4---4---5---5--5--7--7--|
---0---0---0---0---0--0--0--0--|


                             and       
   ^   v   ^   v   ^    v       ^  v   
   E   E   E   E   E    E       E  E   
--------------------------------------|
--------------------------------------|
---9--11--11--11--11S--12-------------|
---x---x---x---x---x------------------|
---7---9---9---9---9S--10-------0--0--|
---0---0---0---0---0------------0--0--|


   I           won    der        
   ^   v   ^   v   ^  v   ^  v   
   E   E   E   E   E  E   E  E   
--------------------------------|
--------------------------------|
---6---6---6---7---7--7---9--9--|
---x---x---x---x---x--x---x--x--|
---4---4---4---5---5--5---7--7--|
---0---0---0---0---0--0---0--0--|


   ^   v   ^   v   ^    v  ^  v   
   E   E   E   E   E    E  E  E   
---------------------------------|
---------------------------------|
---9--11--11--11--11S--12--------|
---x---x---x---x---x-------------|
---7---9---9---9---9S--10--0--0--|
---0---0---0---0---0-------0--0--|


   ^   v   ^   v   ^  v  ^  v   
   E   E   E   E   E  E  E  E   
-------------------------------|
-------------------------------|
---6---6---6---7---7--7--9--9--|
---x---x---x---x---x--x--x--x--|
---4---4---4---5---5--5--7--7--|
---0---0---0---0---0--0--0--0--|


               When     I sing   a-     
   ^   v   ^   v    ^     v   ^     v   
   E   E   E   E    E     E   E     E   
---------------------------------------|
---------------------------------------|
---9--11--11--11---11S---12------------|
---x---x---x---x----x------------------|
---7---9---9---9----9S---10---0-----0--|
---0---0---0---0----0---------0-----0--|


   long         you              
   ^    v   ^   v   ^  v  ^  v   
   E    E   E   E   E  E  E  E   
--------------------------------|
--------------------------------|
---6----6---6---7---7--7--9--9--|
---x----x---x---x---x--x--x--x--|
---4----4---4---5---5--5--7--7--|
---0----0---0---0---0--0--0--0--|


   ^   v   ^   v   ^    v  ^   v   
   E   E   E   E   E    E  E   E   
----------------------------------|
----------------------------------|
---9--11--11--11--11S--12-----11--|
---x---x---x---x---x-----------9--|
---7---9---9---9---9S--10--0---9--|
---0---0---0---0---0-------0---9--|


        If everything could ever             
  E   E                          Q     E   E 
---------------------------------------------
---------------------------------------------
--L--11-------------------------11----11--11-
--L---9--------------------------9-----9---9-
--L---9--------------------------9-----9---9-
--L---9--------------------------9-----9---9-


       this real           forever        
  E  E           Q    E  E         E  E   
-----------------------------------------|
--------------------------------------3--|
--L--7-----------7----7--7------------2--|
--L--5-----------5----5--5---------0--0--|
--L--5-----------5----5--5---------0--0--|
--L--5-----------5----5--5---------0--0--|


  E  E  Q    E  E  E  E   
-------------------------|
--L--3--3----3--3--3--3--|
--L--2--2----2--2--2--2--|
--L--0--0----0--0--0--0--|
--L--0--0----0--0--0--0--|
--L--0--0----0--0--0--0--|


  E  E  E  E  E  E  E   E   
---------------------------|
--L--3--3--3--3--3---------|
--L--2--2--2--2--2-----11--|
--L--0--0--0--0--0--0---9--|
--L--0--0--0--0--0--0---9--|
--L--0--0--0--0--0--0---9--|


         If anything  could  ever     be     
  E   E                                   Q  
---------------------------------------------
---------------------------------------------
--L--11----------------------------------11--
--L---9-----------------------------------9--
--L---9-----------------------------------9--
--L---9-----------------------------------9--


         this good              again        
  E  E                                Q    E 
---------------------------------------------
---------------------------------------------
--L--7--------------------------------7----7-
--L--5--------------------------------5----5-
--L--5--------------------------------5----5-
--L--5--------------------------------5----5-


  E  E  Q    E  E  E  E   
-------------------------|
--L--3--3----3--3--3--3--|
--L--2--2----2--2--2--2--|
--L--0--0----0--0--0--0--|
--L--0--0----0--0--0--0--|
--L--0--0----0--0--0--0--|


  E  E  E  E  E  E  E   E   
---------------------------|
--L--3--3--L--3--3---------|
--L--2--2--L--2--2-----11--|
--L--0--0--L--0--0--0---9--|
--L--0--0--L--0--0--0---9--|
--L--0--0--L--0--0--0---9--|


          only thing i'll     ever           
  E   E                            Q     E   
---------------------------------------------
---------------------------------------------
--L--11---------------------------11----11--1
--L---9----------------------------9-----9---
--L---9----------------------------9-----9---
--L---9----------------------------9-----9---


  ask of you                      
  E          E  Q    E  E  E  E   
---------------------------------|
------------------------------3--|
--L----------7--7----7--7-----2--|
--L----------5--5----5--5--0--0--|
--L----------5--5----5--5--0--0--|
--L----------5--5----5--5--0--0--|


         gotta promise            not to     
  E  E                 Q    E  E  E      E   
--------------------------------------------|
--L--3-----------------3----3--3------------|
--L--2-----------------2----2--2---------9--|
--L--0-----------------0----0--0--0------7--|
--L--0-----------------0----0--0--0------7--|
--L--0-----------------0----0--0--0------7--|


  stop    when    I say        
  E    E  Q    E  E     E  E   
------------------------------|
------------------------------|
--L----9--9----9--9-----9-----|
--L----7--7----7--7-----7--0--|
--L----7--7----7--7-----7--0--|
--L----7--7----7--7-----7--0--|


     when                  
  Q       Q    E  E  Q     
--------------------------|
--------------------------|
--7-------7----7--7--7----|
--5-------5----5--5--5----|
--5-------5----5--5--5----|
--5-------5----5--5--5----|


  E  E  E  E  E  E  Q     
-------------------------|
-------------------------|
--7--7--7--7--7--7--7----|
--5--5--5--5--5--5--5----|
--5--5--5--5--5--5--5----|
--5--5--5--5--5--5--5----|


  E  E  E  E  E  E  Q     
-------------------------|
-------------------------|
--7--7--7--7--7--7--7----|
--5--5--5--5--5--5--5----|
--5--5--5--5--5--5--5----|
--5--5--5--5--5--5--5----|


  E  E  E  E  E  E  Q     
-------------------------|
-------------------------|
--7--7--7--7--7--7--7----|
--5--5--5--5--5--5--5----|
--5--5--5--5--5--5--5----|
--5--5--5--5--5--5--5----|


  E  S S  H.            
-----------------------|
-----------------------|
-----------------------|
---------11------------|
-------9---------------|
-----0-----------------|


   W                  
--------------------||
--------------------||
--------------------||
---L----------------||
--------------------||
--------------------||




Duration Legend
---------------
W - whole
H - half
Q - quarter
E - 8th
S - 16th
T - 32nd
X - 64th
. - note dotted
|-n-|  - n-tuplets
comments
We did not receive enough feedback on this tab! Please rate:
print report bad tab
1 2 3 4 5
I want to post or [tab]
guest
You may want to rate the tab now too:
select rating
Please do not post tabs as comments. Select "correction" instead!