Oops, an error
Loading. Please wait.

Everlong Tab

ver6
997,743 views 1,541 this week
44 commentsread comments
1 2 3 4 5
excellent!
x 214
Autoscroll
+/-
esc
set tempo
stop
Contributor
WARNING: You are trying to view
                                    content from Ultimate-Guitar.com
                                    in an unauthorized application,
                                    which is prohibited.

                                    Please use an official Ultimate
                                    Guitar Tabs application for iPhone,
                                    iPad or Android to access legitimate
                                    chords, guitar, bass, and drum tabs
                                    from Ultimate-Guitar.com database.

                                    Type "ultimate guitar tabs" in Apple
                                    App Store's or Android Market's
                                    search to find the application.
Everlong
Artist: Foo Fighters
Album: The Colour and The Shape

=158
4/4
Intro
Guitar1
e|------------------------|------------------------|------------------------|------------------------|
B|------------------------|------------------------|------------------------|------------------------|
G|------------------------|------------------------|------------------------|------------------------|
D|-------11----11-11----11|-------11----11-11-11---|-------11----11-11----11|-------11----11-11-11---|
A|-------9-----9--9-----9-|-------9-----9--9--9----|-------9-----9--9-----9-|-------9-----9--9--9--0-|
D|-0--0-----0--------0----|-0--0-----0-----------0-|-9--9-----9--------9----|-9--9-----9-----------0-|
Guitar2
/
Bass
/

Guitar1
e|------------------------|------------------------|------------------------|------------------------|
B|------------------------|------------------------|------------------------|------------------------|
G|------------------------|------------------------|------------------------|------------------------|
D|-------7-----------7----|-------11----------11---|-------11----------11---|-------11----11-11----11|
A|-------5-----------5----|-------9-----------9----|-------9-----------9----|-------9-----9--9-----9-|
D|-5--5-----5--5--5-----5-|-9--9-----9--9--9-----9-|-9--9-----9--9--9-----9-|-0--0-----0--------0----|
Guitar2
e|------------------------|------------------------|------------------------|------------------------|
B|------------------------|------------------------|------------------------|------------------------|
G|------------------------|------------------------|------------------------|------------------------|
D|------------------------|------------------------|------------------------|-4----------------------|
A|------------------------|------------------------|------------------------|-0----------------------|
D|------------------------|------------------------|------------------------|-4----------------------|
Bass
G|------------------------|------------------------|------------------------|------------------------|
D|------------------------|------------------------|------------------------|------------------------|
A|------------------------|------------------------|------------------------|------------------------|
D|------------------------|------------------------|------------------------|-4----------------------|







Guitar1
e|------------------------|------------------------|------------------------|------------------------|
B|------------------------|------------------------|------------------------|------------------------|
G|------------------------|------------------------|------------------------|------------------------|
D|-------11----11-11-11---|-------11----11-11----11|-------11----11-11-11---|-------7-----------7----|
A|-------9-----9--9--9----|-------9-----9--9-----9-|-------9-----9--9--9--0-|-------5-----------5----|
D|-0--0-----0-----------0-|-9--9-----9--------9----|-9--9-----9-----------0-|-5--5-----5--5--5-----5-|
Guitar2
e|------------------------|------------------------|------------------------|------------------------|
B|------------------------|------------------------|------------------------|------------------------|
G|------------------------|------------------------|------------------------|------------------------|
D|-------------------4----|------------------------|------------------------|-7-----------------7--/-|
A|-------------------0--0-|-9----------------------|-------------------9--0-|-5-----------------7--/-|
D|-------------------4--0-|-9----------------------|-------------------9--0-|-5-----------------5--/-|
Bass
G|------------------------|------------------------|------------------------|------------------------|
D|------------------------|------------------------|------------------------|------------------------|
A|------------------------|------------------------|------------------------|------------------------|
D|-------------------4--0-|-9----------------------|-------------------9--0-|-5-----------------5----|
Guitar1
e|------------------------|------------------------|
B|------------------------|------------------------|
G|------------------------|------------------------|
D|-------11----------11---|-------11----------11---|
A|-------9-----------9----|-------9-----------9----|
D|-9--9-----9--9--9-----9-|-9--9-----9--9--9-----9-|
Guitar2
e|------------------------|------------------------|
B|------------------------|------------------------|
G|------------------------|------------------------|
D|-11----11----11-11-11-11|-11-11-11-11-11-11-11-11|
A|-9-----9-----9--9--9--9-|-9--9--9--9--9--9--9--9-|
D|-9-----9-----9--9--9--9-|-9--9--9--9--9--9--9--9-|
Bass
G|------------------------|------------------------|
D|------------------------|------------------------|
A|------------------------|------------------------|
D|-9--9--9--9--9--9--9--9-|-9--9--9--9--9--9--9--9-|







Interlude
Guitar1
e|------------------------|------------------------|------------------------|------------------------|
B|------------------------|------------------------|------------------------|------------------------|
G|-9-----9-----9-----9----|-9-----9-----9--11-9----|-9-----9-----9-----9----|-9-----9-----9--11-9----|
D|-11----11----11----11---|-11----11----11-11-11---|-11----11----11----11---|-11----11----11-11-11---|
A|-9-----9-----9-----9----|-9-----9-----9--9--9----|-9-----9-----9-----9----|-9-----9-----9--9--9----|
D|------------------------|------------------------|------------------------|------------------------|
Guitar2
e|------------------------|------------------------|------------------------|------------------------|
B|------------------------|------------------------|------------------------|------------------------|
G|------------------------|------------------------|------------------------|------------------------|
D|-------11----11-11----11|-------11----11-11-11---|-------11----11-11----11|-------11----11-11-11-0-|
A|-------9-----9--9-----9-|-------9-----9--9--9----|-------9-----9--9-----9-|-------9-----9--9--9--0-|
D|-0--0--0--0--0--0--0--0-|-0--0--0--0--0--0--0--0-|-9--9--9--9--9--9--9--9-|-9--9--9--9--9--9--9--0-|
Bass
G|------------------------|------------------------|------------------------|------------------------|
D|------------------------|------------------------|------------------------|------------------------|
A|------------------------|------------------------|------------------------|------------------------|
D|-0--0--0--0--0--0--0--0-|-0--0--0--0--0--0--0--0-|-9--9--9--9--9--9--9--9-|-9--9--9--9--9--9--9--9-|

Guitar1
e|------------------------|------------------------|------------------------|
B|------------------------|------------------------|------------------------|
G|-6-----6-----6-----6--/-|-9-----9-----9-----9----|-9-----9-----9--11-9----|
D|-7-----7-----7-----7--/-|-11----11----11----11---|-11----11----11-11-11---|
A|-5-----5-----5-----5--/-|-9-----9-----9-----9----|-9-----9-----9--9--9----|
D|------------------------|------------------------|------------------------|
Guitar2
e|------------------------|------------------------|------------------------|
B|------------------------|------------------------|------------------------|
G|------------------------|------------------------|------------------------|
D|-7--7--7--7--7--7--7--/-|-11-11-11-11-11-11-11-11|-11-11-11-11-11-11-11-11|
A|-5--5--5--5--5--5--5--/-|-9--9--9--9--9--9--9--9-|-9--9--9--9--9--9--9--9-|
D|-5--5--5--5--5--5--5--/-|-9--9--9--9--9--9--9--9-|-9--9--9--9--9--9--9--9-|
Bass
G|------------------------|------------------------|------------------------|
D|------------------------|------------------------|------------------------|
A|------------------------|------------------------|------------------------|
D|-5--5--5--5--5--5--5--/-|-9--9--9--9--9--9--9--9-|-9--9--9--9--9--9--9--9-|





Verse
Guitar1
e|------------------------|------------------------|------------------------|------------------------|
B|------------------------|------------------------|------------------------|------------------------|
G|------------------------|------------------------|------------------------|------------------------|
D|-------11----11-11----11|-------11----11-11-11---|-------11----11-11----11|-------11----11-11-11---|
A|-------9-----9--9-----9-|-------9-----9--9--9----|-------9-----9--9-----9-|-------9-----9--9--9--0-|
D|-0--0-----0--------0----|-0--0-----0-----------0-|-9--9-----9--------9----|-9--9-----9-----------0-|
Guitar2
e|------------------------|------------------------|------------------------|------------------------|
B|------------------------|------------------------|------------------------|------------------------|
G|------------------------|------------------------|------------------------|------------------------|
D|-------11----11-11----11|-------11----11-11-11---|-------11----11-11----11|-------11----11-11-11-0-|
A|-------9-----9--9-----9-|-------9-----9--9--9----|-------9-----9--9-----9-|-------9-----9--9--9--0-|
D|-0--0--0--0--0--0--0--0-|-0--0--0--0--0--0--0--0-|-9--9--9--9--9--9--9--9-|-9--9--9--9--9--9--9--0-|
Bass
G|------------------------|------------------------|------------------------|------------------------|
D|------------------------|------------------------|------------------------|------------------------|
A|------------------------|------------------------|------------------------|------------------------|
D|-0--0--0--0--0--0--0--0-|-0--0--0--0--0--0--0--0-|-9--9--9--9--9--9--9--9-|-9--9--9--9--9--9--9--0-|

Guitar1
e|------------------------|------------------------|------------------------|
B|------------------------|------------------------|------------------------|
G|------------------------|------------------------|------------------------|
D|-------7-----------7----|-------11----------11---|-------11----------11---|
A|-------5-----------5----|-------9-----------9----|-------9-----------9----|
D|-5--5-----5--5--5-----5-|-9--9-----9--9--9-----9-|-9--9-----9--9--9-----9-|
Guitar2
e|------------------------|------------------------|------------------------|
B|------------------------|------------------------|------------------------|
G|------------------------|------------------------|------------------------|
D|-7--7--7--7--7--7--7--/-|-11----11----11-11-11-11|-11-11-11-11-11-11-11-11|
A|-5--5--5--5--5--5--5--/-|-9-----9-----9--9--9--9-|-9--9--9--9--9--9--9--9-|
D|-5--5--5--5--5--5--5--/-|-9-----9-----9--9--9--9-|-9--9--9--9--9--9--9--9-|
Bass
G|------------------------|------------------------|------------------------|
D|------------------------|------------------------|------------------------|
A|------------------------|------------------------|------------------------|
D|------------------------|------------------------|------------------------|





Prechorus
Guitar1
e|------------------------|------------------------|------------------------|------------------------|
B|------------------------|------------------------|------------------------|------------------------|
G|-6--6--6--7--7--7--9--9-|-9--11-11-11-11-12-14---|------------------------|-6--6--6--7--7--7--9--9-|
D|-0--0--0--0--0--0--0--0-|-0--0--0--0--0--0--0--7-|----7--7-----7--7--7----|-0--0--0--0--0--0--0--0-|
A|-4--4--4--5--5--5--7--7-|-7--9--9--9--9--10-12-7-|----7--7-----7--7--7----|-4--4--4--5--5--5--7--7-|
D|-0--0--0--0--0--0--0--0-|-0--0--0--0--0--0--0--7-|----7--7-----7--7--7--0-|-0--0--0--0--0--0--0--0-|
Guitar2
e|------------------------|------------------------|------------------------|------------------------|
B|------------------------|------------------------|------------------------|------------------------|
G|-6--6--6--7--7--7--9--9-|-9--11-11-11-11-12-14---|------------------------|-6--6--6--7--7--7--9--9-|
D|-0--0--0--0--0--0--0--0-|-0--0--0--0--0--0--0--7-|----7--7-----7--7--7----|-0--0--0--0--0--0--0--0-|
A|-4--4--4--5--5--5--7--7-|-7--9--9--9--9--10-12-7-|----7--7-----7--7--7----|-4--4--4--5--5--5--7--7-|
D|-0--0--0--0--0--0--0--0-|-0--0--0--0--0--0--0--7-|----7--7-----7--7--7--0-|-0--0--0--0--0--0--0--0-|
Bass
G|------------------------|------------------------|------------------------|------------------------|
D|------------------------|------------------------|------------------------|------------------------|
A|------------------------|------------------------|------------------------|------------------------|
D|-0--0--0--0--0--0--0--0-|-0--0--0--0--0--0--0--7-|----7--7-----7--7--7--0-|-0--0--0--0--0--0--0--0-|

Guitar1
e|------------------------|------------------------|------------------------|------------------------|
B|------------------------|------------------------|------------------------|------------------------|
G|-9--11-11-11-11-12-11---|------------------------|-6--6--6--7--7--7--7--7-|-7--11-11-11-11-12-14---|
D|-0--0--0--0--0--0--0--7-|----7--7-----7--7--7----|-0--0--0--0--0--0--0--0-|-0--0--0--0--0--0--0--9-|
A|-7--9--9--9--9--10-9--7-|----7--7-----7--7--7----|-4--4--4--5--5--5--7--7-|-7--9--9--9--9--10-12-9-|
D|-0--0--0--0--0--0--0--7-|----7--7-----7--7--7--0-|-0--0--0--0--0--0--0--0-|-0--0--0--0--0--0--0--9-|
Guitar2
e|------------------------|------------------------|------------------------|------------------------|
B|------------------------|------------------------|------------------------|------------------------|
G|-9--11-11-11-11-12-14---|------------------------|-6--6--6--7--7--7--9--9-|-9--11-11-11-11-12-9----|
D|-0--0--0--0--0--0--0--7-|----7--7-----7--7--7----|-0--0--0--0--0--0--0--0-|-0--0--0--0--0--0--0--9-|
A|-7--9--9--9--9--10-12-7-|----7--7-----7--7--7----|-4--4--4--5--5--5--7--7-|-7--9--9--9--9--10-7--9-|
D|-0--0--0--0--0--0--0--7-|----7--7-----7--7--7--0-|-0--0--0--0--0--0--0--0-|-0--0--0--0--0--0--0--9-|
Bass
G|------------------------|------------------------|------------------------|------------------------|
D|------------------------|------------------------|------------------------|------------------------|
A|------------------------|------------------------|------------------------|------------------------|
D|-0--0--0--0--0--0--0--7-|----7--7-----7--7--7--0-|-0--0--0--0--0--0--0--0-|-0--0--0--0--0--0--0--9-|





Chorus part 1
Guitar1
e|------------------------|------------------------|------------------------|------------------------|
B|------------------------|----------------------3-|----3--3-----3--3--3--3-|-3--3--3--3--3--3--3----|
G|------------------------|----------------------2-|----2--2-----2--2--2--2-|-2--2--2--2--2--2--2----|
D|----9--9-----9--9--0--5-|----5--5-----5--5--0--0-|----0--0-----0--0--0--0-|-0--0--0--0--0--0--0--9-|
A|----9--9-----9--9--0--5-|----5--5-----5--5--0--0-|----0--0-----0--0--0--0-|-0--0--0--0--0--0--0--9-|
D|----9--9-----9--9--0--5-|----5--5-----5--5--0--0-|----0--0-----0--0--0--0-|-0--0--0--0--0--0--0--9-|
Guitar2
e|------------------------|------------------------|------------------------|------------------------|
B|------------------------|----------------------3-|----3--3-----3--3--3--3-|-3--3--3--3--3--3--3----|
G|------------------------|----------------------2-|----2--2-----2--2--2--2-|-2--2--2--2--2--2--2----|
D|----9--9-----9--9--0--5-|----5--5-----5--5--0--0-|----0--0-----0--0--0--0-|-0--0--0--0--0--0--0--9-|
A|----9--9-----9--9--0--5-|----5--5-----5--5--0--0-|----0--0-----0--0--0--0-|-0--0--0--0--0--0--0--9-|
D|----9--9-----9--9--0--5-|----5--5-----5--5--0--0-|----0--0-----0--0--0--0-|-0--0--0--0--0--0--0--9-|
Bass
G|------------------------|------------------------|------------------------|------------------------|
D|------------------------|------------------------|------------------------|------------------------|
A|------------------------|------------------------|------------------------|------------------------|
D|----9--9-----9--9--0--5-|----5--5-----5--5--0--0-|----0--0-----0--0--0--0-|-0--0--0--0--0--0--0--9-|

Chorus part 2
Guitar1
e|------------------------|------------------------|------------------------|------------------------|
B|------------------------|----------------------3-|----3--3-----3--3--3----|------------------------|
G|------------------------|----------------------2-|----2--2-----2--2--2----|------------------------|
D|----9--9-----9--9--0--5-|----5--5-----5--5--0--0-|----0--0-----0--0--0--7-|----7--7-----7--7--7--7-|
A|----9--9-----9--9--0--5-|----5--5-----5--5--0--0-|----0--0-----0--0--0--7-|----7--7-----7--7--7--7-|
D|----9--9-----9--9--0--5-|----5--5-----5--5--0--0-|----0--0-----0--0--0--7-|----7--7-----7--7--7--7-|
Guitar2
e|------------------------|------------------------|------------------------|------------------------|
B|------------------------|----------------------3-|----3--3-----3--3--3----|------------------------|
G|------------------------|----------------------2-|----2--2-----2--2--2----|------------------------|
D|----9--9-----9--9--0--5-|----5--5-----5--5--0--0-|----0--0-----0--0--0--7-|----7--7-----7--7--7--7-|
A|----9--9-----9--9--0--5-|----5--5-----5--5--0--0-|----0--0-----0--0--0--7-|----7--7-----7--7--7--7-|
D|----9--9-----9--9--0--5-|----5--5-----5--5--0--0-|----0--0-----0--0--0--7-|----7--7-----7--7--7--7-|
Bass
G|------------------------|------------------------|------------------------|------------------------|
D|------------------------|------------------------|------------------------|------------------------|
A|------------------------|------------------------|------------------------|------------------------|
D|----9--9-----9--9--0--5-|----5--5-----5--5--0--0-|----0--0-----0--0--0--7-|----7--7-----7--7--7--7-|




Fill 
Guitar1
e|------------------------|------------------------|
B|-8--8--8--8--8--8--8--8-|-8--8--8--8--8--8--8--/-|
G|-7--7--7--7--7--7--7--7-|-7--7--7--7--7--7--7--/-|
D|-5--5--5--5--5--5--5--5-|-5--5--5--5--5--5--5--/-|
A|-5--5--5--5--5--5--5--5-|-5--5--5--5--5--5--5--/-|
D|-5--5--5--5--5--5--5--5-|-5--5--5--5--5--5--5--/-|
Guitar2
e|------------------------|------------------------|
B|-8--8--8--8--8--8--8--8-|-8--8--8--8--8--8--8--/-|
G|-7--7--7--7--7--7--7--7-|-7--7--7--7--7--7--7--/-|
D|-5--5--5--5--5--5--5--5-|-5--5--5--5--5--5--5--/-|
A|-5--5--5--5--5--5--5--5-|-5--5--5--5--5--5--5--/-|
D|-5--5--5--5--5--5--5--5-|-5--5--5--5--5--5--5--/-|
Bass
G|------------------------|------------------------|
D|------------------------|------------------------|
A|------------------------|------------------------|
D|-5--5--5--5--5--5--5--5-|-5--5--5--5--5--5--5--/-|

Middle
Guitar1
e|------------------------|------------------------|------------------------|------------------------|
B|------------------------|------------------------|------------------------|------------------------|
G|------------------------|------------------------|------------------------|------------------------|
D|-------11----11-11----11|-------11----11-11-11---|-------11----11-11----11|-------11----11-11-11---|
A|-------9-----9--9-----9-|-------9-----9--9--9----|-------9-----9--9-----9-|-------9-----9--9--9--0-|
D|-0--0-----0--------0----|-0--0-----0-----------0-|-9--9-----9--------9----|-9--9-----9-----------0-|
Guitar2
/
Bass
/












Guitar1
e|------------------------|------------------------|------------------------|------------------------|
B|------------------------|------------------------|------------------------|------------------------|
G|------------------------|------------------------|------------------------|-9-----9-----9-----9----|
D|-------7-----------7----|-------11----------11---|-------11----------11---|-11----11----11----11---|
A|-------5-----------5----|-------9-----------9----|-------9-----------9----|-9-----9-----9-----9----|
D|-5--5-----5--5--5-----5-|-9--9-----9--9--9-----9-|-9--9-----9--9--9-----9-|------------------------|
Guitar2
e|------------------------|------------------------|------------------------|------------------------|
B|------------------------|------------------------|------------------------|------------------------|
G|------------------------|------------------------|------------------------|------------------------|
D|------------------------|------------------------|------------------------|-4----------------------|
A|------------------------|------------------------|------------------------|-0----------------------|
D|------------------------|------------------------|------------------------|-4----------------------|
Bass
G|------------------------|------------------------|------------------------|------------------------|
D|------------------------|------------------------|------------------------|------------------------|
A|------------------------|------------------------|------------------------|------------------------|
D|------------------------|------------------------|------------------------|-4----------------------|

Guitar1
e|------------------------|------------------------|------------------------|------------------------|
B|------------------------|------------------------|------------------------|------------------------|
G|-9-----9-----9-----9----|-9-----9-----9-----9----|-9-----9-----9-----9----|-6-----6-----6-----6----|
D|-11----11----11----11---|-11----11----11----11---|-11----11----11----11---|-7-----7-----7-----7----|
A|-9-----9-----9-----9----|-9-----9-----9-----9----|-9-----9-----9-----9----|-5-----5-----5-----5----|
D|------------------------|------------------------|------------------------|------------------------|
Guitar2
e|------------------------|------------------------|------------------------|------------------------|
B|------------------------|------------------------|------------------------|------------------------|
G|------------------------|------------------------|------------------------|------------------------|
D|-------------------4----|------------------------|------------------------|-7-----------------7--/-|
A|-------------------0--0-|-9----------------------|-------------------9--0-|-5-----------------7--/-|
D|-------------------4--0-|-9----------------------|-------------------9--0-|-5-----------------5--/-|
Bass
G|------------------------|------------------------|------------------------|------------------------|
D|------------------------|------------------------|------------------------|------------------------|
A|------------------------|------------------------|------------------------|------------------------|
D|-------------------4--0-|-9----------------------|-------------------9--0-|-5-----------------5----|






Guitar1
e|------------------------|------------------------|
B|------------------------|------------------------|
G|-9-----9-----9-----9----|-9-----9-----9-----9----|
D|-11----11----11----11---|-11----11----11----11---|
A|-9-----9-----9-----9----|-9-----9-----9-----9----|
D|------------------------|------------------------|
Guitar2
e|------------------------|------------------------|
B|------------------------|------------------------|
G|------------------------|------------------------|
D|-11----11----11-11-11-11|-11-11-11-11-11-11-11-11|
A|-9-----9-----9--9--9--9-|-9--9--9--9--9--9--9--9-|
D|-9-----9-----9--9--9--9-|-9--9--9--9--9--9--9--9-|
Bass
G|------------------------|------------------------|
D|------------------------|------------------------|
A|------------------------|------------------------|
D|-9--9--9--9--9--9--9--9-|-9--9--9--9--9--9--9--9-|

Solo
Guitar1
e|------------------------|------------------------|------------------------|------------------------|
B|-14-14-14-12-12-12-10-10|-10---------------------|-14-14-14-12-12-12-10-10|-10---------------------|
G|-x--x--x--x--x--x--x--x-|-x--12-12-12-11-12-11---|-x--x--x--x--x--x--x--x-|-x--12-12-12-11-12-11---|
D|-11-11-11-9--9--9--7--7-|-7--x--x--x--x--x--x----|-11-11-11-9--9--9--7--7-|-7--x--x--x--x--x--x--0-|
A|-x--x--x--x--x--x--x--x-|-x--10-10-10-9--10-9----|-x--x--x--x--x--x--x--x-|-x--10-10-10-9--10-9--0-|
D|-0--0--0--0--0--0--0--0-|-0--0--0--0--0--0--0----|-0--0--0--0--0--0--0--0-|-0--0--0--0--0--0--0--0-|
Guitar2
e|------------------------|------------------------|------------------------|------------------------|
B|-14-14-14-12-12-12-10-10|-10---------------------|-14-14-14-12-12-12-10-10|-10---------------------|
G|-x--x--x--x--x--x--x--x-|-x--12-12-12-11-12-11-9-|-x--x--x--x--x--x--x--x-|-x--12-12-12-11-12-11---|
D|-11-11-11-9--9--9--7--7-|-7--x--x--x--x--x--x--x-|-11-11-11-9--9--9--7--7-|-7--x--x--x--x--x--x--0-|
A|-x--x--x--x--x--x--x--x-|-x--10-10-10-9--10-9--7-|-x--x--x--x--x--x--x--x-|-x--10-10-10-9--10-9--0-|
D|-0--0--0--0--0--0--0--0-|-0--0--0--0--0--0--0--0-|-0--0--0--0--0--0--0--0-|-0--0--0--0--0--0--0--0-|
Bass
G|------------------------|------------------------|------------------------|------------------------|
D|------------------------|------------------------|------------------------|------------------------|
A|------------------------|------------------------|------------------------|------------------------|
D|-0--0--0--0--0--0--0--0-|-0--0--0--0--0--0--0--0-|-0--0--0--0--0--0--0--0-|-0--0--0--0--0--0--0--0-|





Guitar1
e|------------------------|------------------------|
B|------------------------|------------------------|
G|-6--6--6--7--7--7--7--7-|-7--11-11-11-11-12-14---|
D|-0--0--0--0--0--0--0--0-|-0--0--0--0--0--0--0--9-|
A|-4--4--4--5--5--5--7--7-|-7--9--9--9--9--10-12-9-|
D|-0--0--0--0--0--0--0--0-|-0--0--0--0--0--0--0--9-|
Guitar2
e|------------------------|------------------------|
B|------------------------|------------------------|
G|-6--6--6--7--7--7--7--7-|-7--11-11-11-11-12-14---|
D|-0--0--0--0--0--0--0--0-|-0--0--0--0--0--0--0--9-|
A|-4--4--4--5--5--5--7--7-|-7--9--9--9--9--10-12-9-|
D|-0--0--0--0--0--0--0--0-|-0--0--0--0--0--0--0--9-|
Bass
G|------------------------|------------------------|
D|------------------------|------------------------|
A|------------------------|------------------------|
D|-0--0--0--0--0--0--0--0-|-0--0--0--0--0--0--0--9-|

End part 1
Guitar1
e|------------------------|------------------------|
B|-8--8--8--8--8--8--8----|-8--8--8--8--8--8--8----|
G|-7--7--7--7--7--7--7----|-7--7--7--7--7--7--7----|
D|-5--5--5--5--5--5--5----|-5--5--5--5--5--5--5----|
A|-5--5--5--5--5--5--5----|-5--5--5--5--5--5--5----|
D|-5--5--5--5--5--5--5----|-5--5--5--5--5--5--5----|
Guitar2
e|------------------------|------------------------|
B|-8--8--8--8--8--8--8----|-8--8--8--8--8--8--8----|
G|-7--7--7--7--7--7--7----|-7--7--7--7--7--7--7----|
D|-5--5--5--5--5--5--5----|-5--5--5--5--5--5--5----|
A|-5--5--5--5--5--5--5----|-5--5--5--5--5--5--5----|
D|-5--5--5--5--5--5--5----|-5--5--5--5--5--5--5----|
Bass
G|------------------------|------------------------|
D|------------------------|------------------------|
A|------------------------|------------------------|
D|-5--5--5--5--5--5--5----|-5--5--5--5--5--5--5----|





End part 2
Guitar1
e|------------------------|
B|-8----------------------|
G|-7----------------------|
D|-5----------------------|
A|-5----------------------|
D|-5----------------------|
Guitar2
e|------------------------|
B|-8----------------------|
G|-7----------------------|
D|-5----------------------|
A|-5----------------------|
D|-5----------------------|
Bass
G|------------------------|
D|------------------------|
A|------------------------|
D|-5----------------------|




Order:
_______
Intro
Interlude
Verse           x2
Interlude
Verse           x2
Prechorus
Chorus part 1  x2
Chorus part 2
Fill
Interlude
Verse           x2
Prechorus
Chorus part 1  x2
Chorus part 2
Middle
Solo
Chorus part 1  x2
Chorus part 2
End
comments
print report bad tab
44 comments total. Showing first comments. show 2 bad comments
-1 reply
ckellingc wrote on January 9 2004, 12:00 am

u use the top 4 strings in the intro it goes like this:
G|-11
D|-11
A|-9
D|-0

not

D|-11
A|-9
D|-0

at least how it is on foofighters.com

I want to post or [tab]
guest
You may want to rate the tab now too:
select rating
Please do not post tabs as comments. Select "correction" instead!