Oops, an error
Loading. Please wait.

Generator Bass Tab

ver3
ver3

Whole song

Interactive

More versions @911Tabs.com
1,957 views 6 this week
1 commentread comment
1 2 3 4 5
accurate
x 2
Autoscroll
+/-
esc
set tempo
stop
Contributor
Difficulty
intermediate
Hey! There's an official Ultimate Guitar app which is ideal
for learning songs when you're away from computer. Get the app
WARNING: You are trying to view
                                    content from Ultimate-Guitar.com
                                    in an unauthorized application,
                                    which is prohibited.

                                    Please use an official Ultimate
                                    Guitar Tabs application for iPhone,
                                    iPad or Android to access legitimate
                                    chords, guitar, bass, and drum tabs
                                    from Ultimate-Guitar.com database.

                                    Type "ultimate guitar tabs" in Apple
                                    App Store's or Android Market's
                                    search to find the application.
                 Generator                   


                                 Foo Fighters
Nate (Bajo)
rugal_25@hotmail.com



     W                   H        Q    Q     
G||-------------------|---------------------|
D||-------------------|---------------------|
A||-------------------|---------------------|
E||-------------------|-----------0----0----|


  W                   Q    Q    Q    Q     
-------------------|----------------------|
-------------------|----------------------|
--0----------------|--L----L--------------|
-------------------|------------0----0----|


  Q    E  E  E  E  E  E   
-------------------------|
-------------------------|
--0----0--0--L--0--0--0--|
-------------------------|


  E  E  E  E  Q    Q     
------------------------|
------------------------|
--L--0--0--0------------|
--------------0----0----|


  Q    E  Q    E  E  E   
------------------------|
------------------------|
------------------------|
--2----2--2----2--2--2--|


  E  E  E  E  Q    Q     
------------------------|
------------------------|
------------------------|
--L--2--2--2--0----0----|


  Q    E  E  E  E  E  E   
-------------------------|
-------------------------|
--0----0--0--L--0--0--0--|
-------------------------|


  E  E  E  E  Q    Q     
------------------------|
------------------------|
--L--0--0--0------------|
--------------0----0----|


  Q    E  Q    E  E  E    
-------------------------|
-------------------------|
-------------------------|
--2----2--2----2--2--2s--|


   E   E   E   E   E   E   E   E   
----------------------------------|
----------------------------------|
----------------------------------|
--10--10--10--10--10--10--10---L--|


  Q    E  E  E  E  E  E   
-------------------------|
-------------------------|
--0----0--0--L--0--0--0--|
-------------------------|


  E  E  E  E  Q    Q     
------------------------|
------------------------|
--L--0--0--0------------|
--------------0----0----|


  Q    E  Q    E  E  E   
------------------------|
------------------------|
------------------------|
--2----2--2----2--2--2--|


  E  E  E  E  Q    Q     
------------------------|
------------------------|
------------------------|
--L--2--2--2--0----0----|


  Q    E  Q    E  E   E   
-------------------------|
-------------------------|
--5----5--5----5--5s--7--|
-------------------------|


  E  E  E  Q    E  E  E   
-------------------------|
-------------------------|
--L--7--7--5----5--5--5--|
-------------------------|


  Q.     E  Q.     E     H        Q    Q     
----------------------|---------------------|
----------------------|---------------------|
--5------7--8------7--|--5------------------|
----------------------|-----------0----0----|


  Q    E  E  E  E  E  E   
-------------------------|
-------------------------|
--0----0--0--L--0--0--0--|
-------------------------|


  E  E  E  E  Q    Q     
------------------------|
------------------------|
--L--0--0--0------------|
--------------0----0----|


  Q    E  Q    E  E  E   
------------------------|
------------------------|
------------------------|
--2----2--2----2--2--2--|


  E  E  E  E  Q    Q     
------------------------|
------------------------|
------------------------|
--L--2--2--2--0----0----|


  Q    E  Q    E  E   E   
-------------------------|
-------------------------|
--5----5--5----5--5s--7--|
-------------------------|


  E  E  E  Q    E  E  E   
-------------------------|
-------------------------|
--L--7--7--5----5--5--5--|
-------------------------|


  E  E  E  E  E  E  E  E   
--------------------------|
--------------------------|
--4--2--4--5--4--2--L--4--|
--------------------------|


  E  E  E  E  E  E  E  E   
--------------------------|
--------------------------|
--L--2--4--5--4--2--L--L--|
--------------------------|


  Q    E  E  E  E  E  E   
-------------------------|
-------------------------|
--0----0--0--L--0--0--0--|
-------------------------|


  E  E  E  E  Q    Q     
------------------------|
------------------------|
--L--0--0--0------------|
--------------0----0----|


  Q    E  Q    E  E  E   
------------------------|
------------------------|
------------------------|
--2----2--2----2--2--2--|


  E  E  E  E  Q    Q     
------------------------|
------------------------|
------------------------|
--L--2--2--2--0----0----|


  Q    E  E  E  E  E  E   
-------------------------|
-------------------------|
--0----0--0--L--0--0--0--|
-------------------------|


  E  E  E  E  Q    Q     
------------------------|
------------------------|
--L--0--0--0------------|
--------------0----0----|


  Q    E  Q    E  E  E    
-------------------------|
-------------------------|
-------------------------|
--2----2--2----2--2--2s--|


   E   E   E   E   E   E   E   E   
----------------------------------|
----------------------------------|
----------------------------------|
--10--10--10--10--10--10--10---L--|


  Q    E  E  E  E  E  E   
-------------------------|
-------------------------|
--0----0--0--L--0--0--0--|
-------------------------|


  E  E  E  E  Q    Q     
------------------------|
------------------------|
--L--0--0--0------------|
--------------0----0----|


  Q    E  Q    E  E  E   
------------------------|
------------------------|
------------------------|
--2----2--2----2--2--2--|


  E  E  E  E  Q    Q     
------------------------|
------------------------|
------------------------|
--L--2--2--2--0----0----|


  Q    E  Q    E  E   E   
-------------------------|
-------------------------|
--5----5--5----5--5s--7--|
-------------------------|


  E  E  E  Q    E  E  E   
-------------------------|
-------------------------|
--L--7--7--5----5--5--5--|
-------------------------|


  E  E  E  E  E  E  E  E   
--------------------------|
--------------------------|
--4--2--4--5--4--2--L--4--|
--------------------------|


  E  E  E  E  E  E  E  E   
--------------------------|
--------------------------|
--L--2--4--5--4--2--L--L--|
--------------------------|


  Q    E  E  E  E  E  E   
-------------------------|
-------------------------|
--0----0--0--L--0--0--0--|
-------------------------|


  E  E  E  E  Q    Q     
------------------------|
------------------------|
--L--0--0--0------------|
--------------0----0----|


  Q    E  Q    E  E  E   
------------------------|
------------------------|
------------------------|
--2----2--2----2--2--2--|


  E  E  E  E  Q    Q     
------------------------|
------------------------|
------------------------|
--L--2--2--2--0----0----|


  Q    E  Q    E  E   E   
-------------------------|
-------------------------|
--5----5--5----5--5s--7--|
-------------------------|


  E  E  E  Q    E  E  E   
-------------------------|
-------------------------|
--L--7--7--5----5--5--5--|
-------------------------|


  E  E  E  E  E  E  E  E   
--------------------------|
--------------------------|
--4--2--4--5--4--2--L--4--|
--------------------------|


  E  E  E  E  E  E  E  E   
--------------------------|
--------------------------|
--L--2--4--5--4--2--L--L--|
--------------------------|


  E  E  E  E  E  E  E  E   
--------------------------|
--------------------------|
--0--0--0--0--0--0--0--0--|
--------------------------|


  E  E  E  E  E  E  E  E    
---------------------------|
---------------------------|
--0--0--0--0--0--0--0--0s--|
---------------------------|


  E  E  E  E  E  E  E  E   
--------------------------|
--------------------------|
--8--8--8--8--8--8--8--8--|
--------------------------|


  E  E  E  E  E  E  E  E   
--------------------------|
--------------------------|
--8--8--8--8--8--8--8--8--|
--------------------------|


  E  E  E  E  E  E  E  E   
--------------------------|
--------------------------|
--9--9--9--9--9--9--9--9--|
--------------------------|


  E  E  E  E  E  E  E  E   
--------------------------|
-----------------------4--|
--9--9--------4--5--7-----|
--------5--7--------------|


  E  E  E  E   E  E  E  E    
----------------------------|
--5--L--5--5s--7--L--7--7s--|
----------------------------|
----------------------------|


  E  E  E  E    E   E   E   E   
-------------------------------|
--9--L--9--9s--11---L--11--11--|
-------------------------------|
-------------------------------|


  E  E  E  E  E  E  E  E    
-----------------7--L------|
--------------7--------7s--|
--5--L--L--L---------------|
---------------------------|


  E  E  E  Q    E  E  E   
-----7-------------------|
--9--L--9--7-------------|
----------------9--8--7--|
-------------------------|


  E  E  E  E  E  E  E  E   
--------------------------|
--------------------------|
--5--L--L--7--8--L--L--7--|
--------------------------|


  H        Q    Q     
---------------------|
---------------------|
--5------------------|
-----------0----0----|


  Q    E  E  E  E  E  E   
-------------------------|
-------------------------|
--0----0--0--L--0--0--0--|
-------------------------|


  E  E  E  E  Q    Q     
------------------------|
------------------------|
--L--0--0--0------------|
--------------0----0----|


  Q    E  Q    E  E  E   
------------------------|
------------------------|
------------------------|
--2----2--2----2--2--2--|


  E  E  E  E  Q    Q     
------------------------|
------------------------|
------------------------|
--L--2--2--2--0----0----|


  Q    E  E  E  E  E  E   
-------------------------|
-------------------------|
--0----0--0--L--0--0--0--|
-------------------------|


  E  E  E  E  Q    Q     
------------------------|
------------------------|
--L--0--0--0------------|
--------------0----0----|


  Q    E  Q    E  E  E    
-------------------------|
-------------------------|
-------------------------|
--2----2--2----2--2--2s--|


   E   E   E   E   E   E   E   E   
----------------------------------|
----------------------------------|
----------------------------------|
--10--10--10--10--10--10--10---L--|


  Q    E  E  E  E  E  E   
-------------------------|
-------------------------|
--0----0--0--L--0--0--0--|
-------------------------|


  E  E  E  E  Q    Q     
------------------------|
------------------------|
--L--0--0--0------------|
--------------0----0----|


  Q    E  Q    E  E  E   
------------------------|
------------------------|
------------------------|
--2----2--2----2--2--2--|


  E  E  E  E  Q    Q     
------------------------|
------------------------|
------------------------|
--L--2--2--2--0----0----|


  Q    E  Q    E  E   E   
-------------------------|
-------------------------|
--5----5--5----5--5s--7--|
-------------------------|


  E  E  E  Q    E  E  E   
-------------------------|
-------------------------|
--L--7--7--5----5--5--5--|
-------------------------|


  E  E  E  E  E  E  E  E   
--------------------------|
--------------------------|
--4--2--4--5--4--2--L--4--|
--------------------------|


  E  E  E  E  E  E  E  E   
--------------------------|
--------------------------|
--L--2--4--5--4--2--L--L--|
--------------------------|


  Q    E  E  E  E  E  E   
-------------------------|
-------------------------|
--0----0--0--L--0--0--0--|
-------------------------|


  E  E  E  E  Q    Q     
------------------------|
------------------------|
--L--0--0--0------------|
--------------0----0----|


  Q    E  Q    E  E  E   
------------------------|
------------------------|
------------------------|
--2----2--2----2--2--2--|


  E  E  E  E  Q    Q     
------------------------|
------------------------|
------------------------|
--L--2--2--2--0----0----|


  Q    E  Q    E  E   E   
-------------------------|
-------------------------|
--5----5--5----5--5s--7--|
-------------------------|


  E  E  E  Q    E  E  E   
-------------------------|
-------------------------|
--L--7--7--5----5--5--5--|
-------------------------|


  E  E  E  E  E  E  E  E   
--------------------------|
--------------------------|
--4--2--4--5--4--2--L--4--|
--------------------------|


  E  E  E  E  E  E  E  E   
--------------------------|
--------------------------|
--L--2--4--5--4--2--L--L--|
--------------------------|


  E  E  E  E  E  E  E  E   
--------------------------|
--------------------------|
--0--0--0--0--0--0--0--0--|
--------------------------|


  E  E  E  E  E  E  E  E    
---------------------------|
---------------------------|
--0--0--0--0--0--0--0--0s--|
---------------------------|


  E  E  E  E  E  E  E  E   
--------------------------|
--------------------------|
--8--8--8--8--8--8--8--8--|
--------------------------|


  E  E  E  E  E  E  E  E   
--------------------------|
--------------------------|
--8--8--8--8--8--8--8--8--|
--------------------------|


  E  E  E  E  E  E  E  E   
--------------------------|
--------------------------|
--9--9--9--9--9--9--9--9--|
--------------------------|


  E  E  E  E  E  E  E  E   
--------------------------|
-----------------------4--|
--9--9--------4--5--7-----|
--------5--7--------------|


  E  E  E  E   E  E  E  E    
----------------------------|
--5--L--5--5s--7--L--7--7s--|
----------------------------|
----------------------------|


  E  E  E  E    E   E   E   E   
-------------------------------|
--9--L--9--9s--11---L--11--11--|
-------------------------------|
-------------------------------|


  E  E  E  E  E  E  E  E    
-----------------7--L------|
--------------7--------7s--|
--5--L--L--L---------------|
---------------------------|


  E  E  E  Q    E  E  E   
-----7-------------------|
--9--L--9--7-------------|
----------------9--8--7--|
-------------------------|


  E  E  E  E  E  E  E  E   
--------------------------|
--------------------------|
--5--L--L--7--8--L--L--7--|
--------------------------|


  H        Q    Q     
---------------------|
---------------------|
--5------------------|
-----------0----0----|


  E  E  E  E  E  E  E  E   
--------------------------|
--------------------------|
--7--7--L--5--L--4--L--2--|
--------------------------|


  E  E  E  E  E  E  E  E   
--------------------------|
--------------------------|
--L--0-----0--2--4--------|
--------4-----------0--L--|


  E  E  E  E  E  E  E  E   
--------------------------|
--------------------------|
--7--7--L--5--L--4--L--2--|
--------------------------|


  E  E  E  E  E  E  E  E   
--------------------------|
--------------------------|
--L--0-----0--2--4--------|
--------4-----------0--L--|


  E  E  E  E  E  E  E  E   
--------------------------|
--------------------------|
--7--7--L--5--L--4--L--2--|
--------------------------|


  E  E  E  E  E  E  E  E   
--------------------------|
--------------------------|
--L--0-----0--2--4--------|
--------4-----------0--L--|


  E  E  E  E  E  E  E  E   
--------------------------|
--------------------------|
--7--7--L--5--L--4--L--2--|
--------------------------|


  E  E  E  E  E  E  E  E   
--------------------------|
--------------------------|
--L--0-----0--2--4--------|
--------4-----------0--L--|


  E  E  E  E  E  E  E  E   
--------------------------|
--------------------------|
--7--7--L--5--L--4--L--2--|
--------------------------|


  E  E  E  E  E  E  E  E   
--------------------------|
--------------------------|
--L--0-----0--2--4--------|
--------4-----------0--L--|


  E  E  E  E  E  E  E  E   
--------------------------|
--------------------------|
--7--7--L--5--L--4--L--2--|
--------------------------|


  E  E  E  E  E  E  E  E   
--------------------------|
--------------------------|
--L--0-----0--2--4--------|
--------4-----------0--L--|


  E  E  E  E  E  E  E  E   
--------------------------|
--------------------------|
--0--0--0--0--0--0--0--0--|
--------------------------|


  E  E  E  E  E  E  E  E    
---------------------------|
---------------------------|
--0--0--0--0--0--0--0--0s--|
---------------------------|


  E  E  E  E  E  E  E  E   
--------------------------|
--------------------------|
--8--8--8--8--8--8--8--8--|
--------------------------|


  E  E  E  E  E  E  E  E   
--------------------------|
--------------------------|
--8--8--8--8--8--8--8--8--|
--------------------------|


  E  E  E  E  E  E  E  E   
--------------------------|
--------------------------|
--9--9--9--9--9--9--9--9--|
--------------------------|


  E  E  E  E  E  E  E  E   
--------------------------|
-----------------------4--|
--9--9--------4--5--7-----|
--------5--7--------------|


  E  E  E  E   E  E  E  E    
----------------------------|
--5--L--5--5s--7--L--7--7s--|
----------------------------|
----------------------------|


  E  E  E  E    E   E   E   E   
-------------------------------|
--9--L--9--9s--11---L--11--11--|
-------------------------------|
-------------------------------|


  E  E  E  E  E  E  E  E    
-----------------7--L------|
--------------7--------7s--|
--5--L--L--L---------------|
---------------------------|


  E  E  E  Q    E  E  E   
-----7-------------------|
--9--L--9--7-------------|
----------------9--8--7--|
-------------------------|


  E  E  E  E  E  E  E  E   
--------------------------|
--------------------------|
--5--L--L--7--8--L--L--7--|
--------------------------|


  H        Q    Q     
---------------------|
---------------------|
--5------------------|
-----------0----0----|


  E  E  E  E  E  E  E  E   
--------------------------|
--------------------------|
--0--0--0--0--0--0--0--0--|
--------------------------|


  E  E  E  E  E  E  E  E    
---------------------------|
---------------------------|
--0--0--0--0--0--0--0--0s--|
---------------------------|


  E  E  E  E  E  E  E  E   
--------------------------|
--------------------------|
--8--8--8--8--8--8--8--8--|
--------------------------|


  E  E  E  E  E  E  E  E   
--------------------------|
--------------------------|
--8--8--8--8--8--8--8--8--|
--------------------------|


  E  E  E  E  E  E  E  E   
--------------------------|
--------------------------|
--9--9--9--9--9--9--9--9--|
--------------------------|


  E  E  E  E  E  E  E  E   
--------------------------|
-----------------------4--|
--9--9--------4--5--7-----|
--------5--7--------------|


  E  E  E  E   E  E  E  E    
----------------------------|
--5--L--5--5s--7--L--7--7s--|
----------------------------|
----------------------------|


  E  E  E  E    E   E   E   E   
-------------------------------|
--9--L--9--9s--11---L--11--11--|
-------------------------------|
-------------------------------|


  E  E  E  E  E  E  E  E    
-----------------7--L------|
--------------7--------7s--|
--5--L--L--L---------------|
---------------------------|


  E  E  E  Q    E  E  E   
-----7-------------------|
--9--L--9--7-------------|
----------------9--8--7--|
-------------------------|


  E  E  E  E  E  E  E  E   
--------------------------|
--------------------------|
--5--L--L--7--8--L--L--7--|
--------------------------|


  H        Q    Q     
---------------------|
---------------------|
--5------------------|
-----------0----0----|


  Q    E  E  E  E  E  E   
-------------------------|
-------------------------|
--0----0--0--L--0--0--0--|
-------------------------|


  E  E  E  E  Q    Q     
------------------------|
------------------------|
--L--0--0--0------------|
--------------0----0----|


  Q    E  E  E  E  E  E   
-------------------------|
-------------------------|
--0----0--0--L--0--0--0--|
-------------------------|


  E  E  E  E  Q    Q       W                 
------------------------|-------------------|
------------------------|-------------------|
--L--0--0--0------------|--0----------------|
--------------0----0----|-------------------|


  W                                      
-------------------|-------------------||
-------------------|-------------------||
--L----------------|-------------------||
-------------------|-------------------||




Duration Legend
---------------
W - whole
H - half
Q - quarter
E - 8th
S - 16th
T - 32nd
X - 64th
. - note dotted
|-n-|  - n-tuplets


Tablature Legend
----------------
L - tied note
x - dead note
g - grace note
(n) - ghost note
> - accentuded note
NH - natural harmonic
AH - artificial harmonic
TH - tapped harmonic
SH - semi harmonic
PH - pitch harmonic
h - hammer on
p - pull off
b - bend
br - bendRelease
pb - preBend
pbr - preBendRelease
brb - bendReleaseBend
\n/ - tremolo bar dip
\n - tremolo bar dive
-/n - tremolo bar Release up
/n\ - tremolo bar inverted dip
/n - tremolo bar return
-\n - tremolo bar Release down
S - shift slide
s - legato slide
/ -  slide into from below or out of upwards
\ -  slide into from above or out of downwards
~ - vibrato
W - wide vibrato
tr - trill
TP - tremolo picking
T - tapping
S - slap
P - pop
< - fade in
^ - brush up
v - brush down
comments
We did not receive enough feedback on this tab! Please rate:
print report bad tab
1 2 3 4 5
1 comment total.
+1 reply
SiggyBond23 wrote on May 15 2011, 05:18 pm

other than making it impossible to read this tab and play along with the song, you've made an accurate tab. just work on the formatting, this is kind of difficult to read

I want to post or [tab]
guest
You may want to rate the tab now too:
select rating
Please do not post tabs as comments. Select "correction" instead!