Oops, an error
Loading. Please wait.

Have It All Tab

ver3
ver3

Whole song

Interactive

More versions @911Tabs.com
2,161 views 15 this week
no commentswrite comment
1 2 3 4 5
excellent!
x 1
Autoscroll
+/-
esc
set tempo
stop
Contributor
Difficulty
intermediate
Hey! There's an official Ultimate Guitar app which is ideal
for learning songs when you're away from computer. Get the app
WARNING: You are trying to view
                                    content from Ultimate-Guitar.com
                                    in an unauthorized application,
                                    which is prohibited.

                                    Please use an official Ultimate
                                    Guitar Tabs application for iPhone,
                                    iPad or Android to access legitimate
                                    chords, guitar, bass, and drum tabs
                                    from Ultimate-Guitar.com database.

                                    Type "ultimate guitar tabs" in Apple
                                    App Store's or Android Market's
                                    search to find the application.
Song:Have It All
Artist:Foo Fighters
Album:One by One

Tabbed by ben3296(bptrules@hotmail.com)

Guitar 1(Shiflett) and Guitar 2 (Grohl) are both distorted and use standard tuning
Quite fast rock - 162bpm

4/4(except the very ending which is marked with 3/4)

h-hammer on
p-pull off
b-bend
/and\-slide

Intro
-----
Guitar 1
e-|----------------|----------------|----------------|-----------------|
B-|----------------|----------------|----------------|-----------------|
G-|----5-------5---|----5-------5---|----5-------5---|----5-------5----|
D-|4-4-5---4-4-5---|4-4-5---4-4-5---|4-4-5---4-4-5---|4-4-5---4-4-5----|
A-|----------------|----------------|----------------|-----------------|
E-|----------------|----------------|----------------|-----------------|
                   |                |                |                 |
Guitar 2           |                |                |                 |
e-|----------------|----------------|----------------|-----------------|
B-|----------------|----------------|----------------|-----------------|
G-|----------------|----------------|----------------|-----------------|
D-|----------------|----------------|----------------|---------------77|
A-|9-9-10--9-9-10--|9-9-10--9-9-10--|9-9-10--9-9-10--|9-9-10--9-9-10-00|
E-|----------------|----------------|----------------|-----------------|

Guitar 1
e-|----------------|----------------|----------------|----------------|
B-|----------------|----------------|----------------|----------------|
G-|----------------|----------------|----------------|----------------|
D-|----------------|----7-------7---|----7-------7---|----5-------5---|
A-|0---0-0-7-0-0-7-|0-0---0-7-0---0-|5-5-5---5-5-5---|3-3-3---3-3-3---|
E-|----------------|----------------|----------------|--------------0-|
                   |                |                |                |
Guitar 2           |                |                |                |
e-|----------------|----------------|----------------|----------------|
B-|----------------|----------------|----------------|----------------|
G-|----------------|----------------|----------------|----------------|
D-|7---------------|----------------|----------------|--------------77|
A-|0---------------|----------------|----------------|--------------00|
E-|----------------|----------------|----------------|----------------|

Guitar 1
e-|----------------|----------------|----------------|----------------|
B-|----------------|----------------|----------------|----------------|
G-|----------------|----------------|----------------|----------------|
D-|----------------|----7-------7---|----7-------7---|----5---5-7---8-|
A-|0---0-0-7-0-0-7-|0-0---0-7-0---0-|5-5-5---5-5-5---|3-3-3---3-5---6-|
E-|----------------|----------------|----------------|------0---------|
                   |                |                |                |
Guitar 2           |                |                |                |
e-|----------------|----------------|----------------|----------------|
B-|----------------|----------------|----------------|----------------|
G-|----------------|----------------|----------------|----------------|
D-|7---------------|----------------|----------------|--------5-7---8-|
A-|0---------------|----------------|----------------|--------3-5---6-|
E-|----------------|----------------|----------------|----------------|

Guitar 1
e-|----------------|----------------|----------------|----------------|
B-|----------------|----------------|----------------|----------------|
G-|----------------|----------------|----------------|----------------|
D-|----------------|----7-------7---|----7-------7---|----5---5-7---8-|
A-|0---0-0-7-0-0-7-|0-0---0-7-0---0-|5-5-5---5-5-5---|3-3-3---3-5---6-|
E-|----------------|----------------|----------------|------0---------|
                   |                |                |                |
Guitar 2           |                |                |                |
e-|----------------|----------------|----------------|----------------|
B-|----------------|----------------|----------------|----------------|
G-|----------------|----------------|----------------|----------------|
D-|----------------|----------------|----------------|--------5-7---8-|
A-|----------------|----------------|----------------|--------3-5---6-|
E-|----------------|----------------|----------------|----------------|

Guitar 1
e-|----------------|----------------|----------------|----------------|
B-|----------------|----------------|----------------|----------------|
G-|----------------|----------------|----------------|----------------|
D-|----------------|----7-------7---|----7-------7---|----5---5-7---8-|
A-|--0-0-0-7-0-0-7-|0-0---0-7-0---0-|5-5-5---5-5-5---|3-3-3---3-5---6-|
E-|----------------|----------------|----------------|------0---------|
                   |                |                |                |
Guitar 2           |                |                |                |
e-|----------------|----------------|----------------|----------------|
B-|----------------|----------------|----------------|----------------|
G-|----------------|----------------|----------------|------14\/14\/14|
D-|----------------|----------------|----------------|----------------|
A-|----------------|----------------|----------------|----------------|
E-|----------------|----------------|----------------|----------------|

Guitar 1
e-|----------------|----------------|----------------|----------------|
B-|----------------|----------------|----------------|----------------|
G-|----------------|----------------|----------------|----------------|
D-|----------------|----7-------7---|----7-------7---|----5---5-7---8-|
A-|--0-0-0-7-0-0-7-|0-0---0-7-0---0-|5-5-5---5-5-5---|3-3-3---3-5---6-|
E-|----------------|----------------|----------------|------0---------|
                   |                |                |                |
Guitar 2           |                |                |                |
e-|----------------|----------------|----------------|----------------|
B-|--------8-8-----|----8-8---------|--------7-7-----|----------------|
G-|----5-5---------|5-5---------5-5-|----5-5-----5-5-|----5-5---------|
D-|--7---------7-7-|--------7-7-----|7-7-------------|5-5-----5-7--b8-|
A-|----------------|----------------|----------------|----------------|
E-|----------------|----------------|----------------|----------------|

Guitar 1
e-|----------------|----------------|----------------|----------------|
B-|----------------|----------------|----------------|----------------|
G-|----------------|----------------|----------------|----------------|
D-|----------------|----7-------7---|----7-------7---|----5-----------|
A-|--0-0-0-7-0-0-7-|0-0---0-7-0---0-|5-5-5---5-5-5---|3-3-3---3-5-3-5-|
E-|----------------|----------------|----------------|----------------|
                   |                |                |                |
Guitar 2           |                |                |                |
e-|----------------|----------------|----------------|----------------|
B-|--------8-8-----|----8-8---------|--------7-7-----|----------------|
G-|----5-5---------|5-5---------5-5-|----5-5-----5-5-|----5-----------|
D-|--7---------7-7-|--------7-7-----|7-7-------------|5-5-------------|
A-|----------------|----------------|----------------|------5-3-5-3-5-|
E-|----------------|----------------|----------------|----------------|


Verse
-----
Guitar 1
e-|----------------|----------------|----------------|----------------|
B-|----------------|----------------|----------------|----------------|
G-|----------------|----------------|----------------|----------------|
D-|----------------|----7-------7---|----7-------7---|----5-------5---|
A-|0---0-0-7-0-0-7-|0-0---0-7-0---0-|5-5-5---5-5-5---|3-3-3---3-3-3-0-|
E-|----------------|----------------|----------------|----------------|
                   |                |                |                |play
Guitar 2           |                |                |                |4 times
e-|----------------|----------------|----------------|----------------|
B-|----------------|----------------|----------------|----------------|
G-|----------------|----------------|----------------|----------------|
D-|7---------------|----------------|----------------|----------------|
A-|0---------------|----------------|----------------|----------------|
E-|----------------|----------------|----------------|----------------|

Guitar 1
e-|------------------|----------------|
B-|------------------|----------------|
G-|------------------|----------------|
D-|9-----------11-11-|----------------|
A-|0-----------0--0--|----------------|
E-|------------------|----------------|
                     |                |
Guitar 2             |                |
e-|------------------|----------------|
B-|------------------|----------------|
G-|2-----------2--2--|----------------|
D-|2-----------2--2--|----------------|
A-|0-----------0--0--|----------------|
E-|------------------|----------------|


Pre-Chorus
----------
Guitar 1
e-|-------------------|-----------------|----------------|----------------|
B-|0---0---0--0--0--10|--10-10----------|----------------|--------------0-|
G-|9---9---9--9--9--9-|--9--9-----------|----9-------9---|----9---------9-|
D-|11--11--11-11-11-11|--11-11--7h9p7-0-|--0-0---0-0-0---|----0---7-7-9-11|
A-|0---0---7--0--0--0-|--0--0---0-----9-|--9-9---9-9-9---|9-9-9---0-0-0-0-|
E-|-------------------|-----------------|----------------|----------------|
                      |                 |                |                |
Guitar 2              |                 |                |                |
e-|-------------------|-----------------|----------------|----------------|
B-|5---5---5--5--5--5-|--5--5---5-5-5-5-|--5-5---5-5-5---|5-5-5---5-5-5-5-|
G-|6---6---6--6--6--6-|--6--6---6-6-6-2-|--2-2---2-2-2---|2-2-2---2-2-2-6-|
D-|7---7---7--7--7--7-|--7--7---7-7-7-4-|--4-4---4-4-4---|4-4-4---4-4-4-7-|
A-|0---0---0--0--0--0-|--0--0---0-0-0-0-|--0-0---0-0-0---|0-0-0---0-0-0-0-|
E-|-------------------|-----------------|----------------|----------------|

Guitar 1
e-|--------------------|-----------------|----------------|----------------|
B-|--0--0---0--0--0--10|--10-10----------|----------------|----------------|
G-|--9--9---9--9--9--9-|--9--9-----------|----9-------9---|----9-----------|
D-|--11-11--11-11-11-11|--11-11--7h9p7-0-|--0-0---0-0-0---|----0---------0-|
A-|--0--0---7--0--0--0-|--0--0---0-----9-|--9-9---9-9-9---|9-9-9---9-\-0-x-|
E-|--------------------|-----------------|----------------|--------------3-|
                       |                 |                |                |
Guitar 2               |                 |                |                |
e-|--------------------|-----------------|----------------|--------------3-|
B-|--5--5---5--5--5--5-|--5--5---5-5-5-5-|--5-5---5-5-5---|5-5-5-----5---3-|
G-|--6--6---6--6--6--6-|--6--6---6-6-6-2-|--2-2---2-2-2---|2-2-2-------0-0-|
D-|--7--7---7--7--7--7-|--7--7---7-7-7-4-|--4-4---4-4-4---|4-4-4-----------|
A-|--0--0---0--0--0--0-|--0--0---0-0-0-0-|--0-0---0-0-0---|0-0-0-----------|
E-|--------------------|-----------------|----------------|----------------|


Chorus
------
Guitar 1
e-|----------------|----------------|----------------|----------------|
B-|----------------|----------------|----------------|----------------|
G-|----------------|----------------|----------------|----2-------2---|
D-|--0-0---0-----0-|--0-0---0-----0-|--0---0---0---2-|--2-2---2-2-2---|
A-|--x-x---x-----x-|--x-x---x-----x-|--x---x---x---0-|--0-0---0-0-0---|
E-|--3-3---3-5-3-2-|--2-2---2-3-2-1-|--1---1---3-----|----------------|
                   |                |                |                |
Guitar 2           |                |                |                |
e-|--3-3---3-----2-|--2-2---2-----3-|--3-0---0-0-0---|----------------|
B-|--3-3---3-----3-|--3-3---3-----3-|--3-3---3-3-3-2-|--2-2---2-2-2---|
G-|--0-0---0-----2-|--2-2---2-----2-|--2-2---2-2-2-2-|--2-2---2-2-2---|
D-|----------------|--------------3-|--3-3---3-3-3-2-|--2-2---2-2-2---|
A-|----------------|----------------|----------------|----------------|
E-|----------------|----------------|----------------|----------------|

Guitar 1
e-|----------------|----------------|----------------|----------------|
B-|----------------|----------------|----------------|----------------|
G-|----------------|----------------|----------------|----2-------2---|
D-|0---0---0-----0-|--0-0---0-----0-|--0---0---0---2-|--2-2---2-2-2---|
A-|x---x---x-----x-|--x-x---x-----x-|--x---x---x---0-|--0-0---0-0-0---|
E-|3---3---3-5-3-2-|--2-2---2-3-2-1-|--1---1---3-----|----------------|
                   |                |                |                |
Guitar 2           |                |                |                |
e-|3---3---3-----2-|--2-2---2-----3-|--3-0---0-0-0---|----------------|
B-|3---3---3-----3-|--3-3---3-----3-|--3-3---3-3-3-2-|--2-2---2-2-2---|
G-|0---0---0-----2-|--2-2---2-----2-|--2-2---2-2-2-2-|--2-2---2-2-2---|
D-|----------------|--------------3-|--3-3---3-3-3-2-|--2-2---2-2-2---|
A-|----------------|----------------|----------------|----------------|
E-|----------------|----------------|----------------|----------------|

Guitar 1
e-|----------------|----------------|
B-|----------------|----------------|
G-|----5-------5---|----5-------5---|
D-|4-4-5---4-4-5---|4-4-5---4-4-5---|
A-|----------------|----------------|
E-|----------------|----------------|
                   |                |
Guitar 2           |                |
e-|----------------|----------------|
B-|----------------|----------------|
G-|----------------|------------5---|
D-|----------------|--------------7-|
A-|9-9-10--9-9-10--|9-9-10--9-9-----|
E-|----------------|----------------|


Interlude
---------
Guitar 1
e-|----------------|----------------|----------------|----------------|
B-|----------------|----------------|----------------|----------------|
G-|----------------|----------------|----------------|----------------|
D-|----------------|----7-------7---|----7-------7---|----5---5-7---8-|
A-|0---0-0-7-0-0-7-|0-0---0-7-0---0-|5-5-5---5-5-5---|3-3-3---3-5---6-|
E-|----------------|----------------|----------------|------0---------|
                   |                |                |                |
Guitar 2           |                |                |                |
e-|----------------|----------------|----------------|----------------|
B-|--------8-8-----|----8-8---------|--------7-7-----|----------------|
G-|----5-5---------|5-5---------5-5-|----5-5-----5-5-|----5-5---------|
D-|7-7---------7-7-|--------7-7-----|7-7-------------|5-5-----5-7--b8-|
A-|----------------|----------------|----------------|----------------|
E-|----------------|----------------|----------------|----------------|

Guitar 1
e-|----------------|----------------|----------------|----------------|
B-|----------------|----------------|----------------|----------------|
G-|----------------|----------------|----------------|----------------|
D-|----------------|----7-------7---|----7-------7---|----5-----------|
A-|--0-0-0-7-0-0-7-|0-0---0-7-0---0-|5-5-5---5-5-5---|3-3-3---3-5-3-5-|
E-|----------------|----------------|----------------|----------------|
                   |                |                |                |
Guitar 2           |                |                |                |
e-|----------------|----------------|----------------|----------------|
B-|--------8-8-----|----8-8---------|--------7-7-----|----------------|
G-|----5-5---------|5-5---------5-5-|----5-5-----5-5-|----5-----------|
D-|--7---------7-7-|--------7-7-----|7-7-------------|5-5-------------|
A-|----------------|----------------|----------------|------5-3-5-3-5-|
E-|----------------|----------------|----------------|----------------|


Verse
-----
Guitar 1
e-|----------------|----------------|----------------|----------------|
B-|----------------|----------------|----------------|----------------|
G-|----------------|----------------|----------------|----------------|
D-|----------------|----7-------7---|----7-------7---|----5-------5---|
A-|0---0-0-7-0-0-7-|0-0---0-7-0---0-|5-5-5---5-5-5---|3-3-3---3-3-3-0-|
E-|----------------|----------------|----------------|----------------|
                   |                |                |                |play
Guitar 2           |                |                |                |4 times
e-|----------------|----------------|----------------|----------------|
B-|----------------|----------------|----------------|----------------|
G-|----------------|----------------|----------------|----------------|
D-|7---------------|----------------|----------------|----------------|
A-|0---------------|----------------|----------------|----------------|
E-|----------------|----------------|----------------|----------------|

Guitar 1
e-|------------------|----------------|
B-|------------------|----------------|
G-|------------------|----------------|
D-|9-----------11-11-|----------------|
A-|0-----------0--0--|----------------|
E-|------------------|----------------|
                     |                |
Guitar 2             |                |
e-|------------------|----------------|
B-|------------------|----------------|
G-|2-----------2--2--|----------------|
D-|2-----------2--2--|----------------|
A-|0-----------0--0--|----------------|
E-|------------------|----------------|


Pre-Chorus
----------
Guitar 1
e-|-------------------|-----------------|----------------|----------------|
B-|0---0---0--0--0--10|--10-10----------|----------------|--------------0-|
G-|9---9---9--9--9--9-|--9--9-----------|----9-------9---|----9---------9-|
D-|11--11--11-11-11-11|--11-11--7h9p7-0-|--0-0---0-0-0---|----0---7-7-9-11|
A-|0---0---7--0--0--0-|--0--0---0-----9-|--9-9---9-9-9---|9-9-9---0-0-0-0-|
E-|-------------------|-----------------|----------------|----------------|
                      |                 |                |                |
Guitar 2              |                 |                |                |
e-|-------------------|-----------------|----------------|----------------|
B-|5---5---5--5--5--5-|--5--5---5-5-5-5-|--5-5---5-5-5---|5-5-5---5-5-5-5-|
G-|6---6---6--6--6--6-|--6--6---6-6-6-2-|--2-2---2-2-2---|2-2-2---2-2-2-6-|
D-|7---7---7--7--7--7-|--7--7---7-7-7-4-|--4-4---4-4-4---|4-4-4---4-4-4-7-|
A-|0---0---0--0--0--0-|--0--0---0-0-0-0-|--0-0---0-0-0---|0-0-0---0-0-0-0-|
E-|-------------------|-----------------|----------------|----------------|

Guitar 1
e-|--------------------|-----------------|----------------|----------------|
B-|--0--0---0--0--0--10|--10-10----------|----------------|----------------|
G-|--9--9---9--9--9--9-|--9--9-----------|----9-------9---|----9-----------|
D-|--11-11--11-11-11-11|--11-11--7h9p7-0-|--0-0---0-0-0---|----0---------0-|
A-|--0--0---7--0--0--0-|--0--0---0-----9-|--9-9---9-9-9---|9-9-9---9-\-0-x-|
E-|--------------------|-----------------|----------------|--------------3-|
                       |                 |                |                |
Guitar 2               |                 |                |                |
e-|--------------------|-----------------|----------------|--------------3-|
B-|--5--5---5--5--5--5-|--5--5---5-5-5-5-|--5-5---5-5-5---|5-5-5-----5---3-|
G-|--6--6---6--6--6--6-|--6--6---6-6-6-2-|--2-2---2-2-2---|2-2-2-------0-0-|
D-|--7--7---7--7--7--7-|--7--7---7-7-7-4-|--4-4---4-4-4---|4-4-4-----------|
A-|--0--0---0--0--0--0-|--0--0---0-0-0-0-|--0-0---0-0-0---|0-0-0-----------|
E-|--------------------|-----------------|----------------|----------------|


Chorus
------
Guitar 1
e-|----------------|----------------|----------------|----------------|
B-|----------------|----------------|----------------|----------------|
G-|----------------|----------------|----------------|----2-------2---|
D-|--0-0---0-----0-|--0-0---0-----0-|--0---0---0---2-|--2-2---2-2-2---|
A-|--x-x---x-----x-|--x-x---x-----x-|--x---x---x---0-|--0-0---0-0-0---|
E-|--3-3---3-5-3-2-|--2-2---2-3-2-1-|--1---1---3-----|----------------|
                   |                |                |                |
Guitar 2           |                |                |                |
e-|--3-3---3-----2-|--2-2---2-----3-|--3-0---0-0-0---|----------------|
B-|--3-3---3-----3-|--3-3---3-----3-|--3-3---3-3-3-2-|--2-2---2-2-2---|
G-|--0-0---0-----2-|--2-2---2-----2-|--2-2---2-2-2-2-|--2-2---2-2-2---|
D-|----------------|--------------3-|--3-3---3-3-3-2-|--2-2---2-2-2---|
A-|----------------|----------------|----------------|----------------|
E-|----------------|----------------|----------------|----------------|

Guitar 1
e-|----------------|----------------|----------------|----------------|
B-|----------------|----------------|----------------|----------------|
G-|----------------|----------------|----------------|----2-------2---|
D-|0---0---0-----0-|--0-0---0-----0-|--0---0---0---2-|--2-2---2-2-2---|
A-|x---x---x-----x-|--x-x---x-----x-|--x---x---x---0-|--0-0---0-0-0---|
E-|3---3---3-5-3-2-|--2-2---2-3-2-1-|--1---1---3-----|----------------|
                   |                |                |                |
Guitar 2           |                |                |                |
e-|3---3---3-----2-|--2-2---2-----3-|--3-0---0-0-0---|----------------|
B-|3---3---3-----3-|--3-3---3-----3-|--3-3---3-3-3-2-|--2-2---2-2-2---|
G-|0---0---0-----2-|--2-2---2-----2-|--2-2---2-2-2-2-|--2-2---2-2-2---|
D-|----------------|--------------3-|--3-3---3-3-3-2-|--2-2---2-2-2---|
A-|----------------|----------------|----------------|----------------|
E-|----------------|----------------|----------------|----------------|

Bridge
------
Guitar 1
e-|----------------|----------------|----------------|----------------|
B-|----------------|----------------|----------------|----------------|
G-|----5-------5---|----5-------5---|----------------|----------------|
D-|4-4-5---4-4-5---|4-4-5---4-4-5---|11--11--11--9-7-|--7-7---7-7-7---|
A-|----------------|----------------|0---0---0---0-0-|--0-0---0-0-0---|
E-|----------------|----------------|----------------|----------------|
                   |                |                |                |play
Guitar 2           |                |                |                |2 times
e-|----------------|----------------|----------------|----------------|
B-|----------------|----------------|----------------|----------------|
G-|----------------|----------------|----------------|----------------|
D-|----------------|----------------|11--11--11--9-7-|--7-7---7-7-7---|
A-|9-9-10--9-9-10--|9-9-10--9-9-10--|0---0---0---0-0-|--0-0---0-0-0---|
E-|----------------|----------------|----------------|----------------|

Guitar 1
e-|----------------|----------------|----------------|-----------------|
B-|----------------|----------------|----------------|-----------------|
G-|----5-------5---|----5-------5---|----5-------5---|----5-------5----|
D-|4-4-5---4-4-5---|4-4-5---4-4-5---|4-4-5---4-4-5---|4-4-5---4-4-5----|
A-|----------------|----------------|----------------|-----------------|
E-|----------------|----------------|----------------|-----------------|
                   |                |                |                 |
Guitar 2           |                |                |                 |
e-|----------------|----------------|----------------|-----------------|
B-|----------------|----------------|----------------|-----------------|
G-|----------------|----------------|----------------|-----------------|
D-|----------------|----------------|----------------|---------------/7|
A-|9-9-10--9-9-10--|9-9-10--9-9-10--|9-9-10--9-9-10--|9-9-10--0-/-10\--|
E-|----------------|----------------|----------------|-----------------|

Guitar 1
e-|----------------|----------------|----------------|----------------|
B-|----------------|----------------|----------------|----------------|
G-|----------------|----------------|----------------|----------------|
D-|----------------|----7-------7---|----7-------7---|----5---5-7---8-|
A-|0---0-0-7-0-0-7-|0-0---0-7-0---0-|5-5-5---5-5-5---|3-3-3---3-5---6-|
E-|----------------|----------------|----------------|------0---------|
                   |                |                |                |play
Guitar 2           |                |                |                |2 times
e-|----------------|----------------|----------------|----------------|
B-|--------8-8-----|----8-8---------|--------7-7-----|----------------|
G-|----5-5---------|5-5---------5-5-|----5-5-----5-5-|----5-5---------|
D-|7-7---------7-7-|--------7-7-----|7-7-------------|5-5-----5-7--b8-|
A-|----------------|----------------|----------------|----------------|
E-|----------------|----------------|----------------|----------------|

Verse
-----
Guitar 1
e-|----------------|----------------|----------------|----------------|
B-|----------------|----------------|----------------|----------------|
G-|----------------|----------------|----------------|----------------|
D-|----------------|----7-------7---|----7-------7---|----5---5-7---8-|
A-|0---0-0-7-0-0-7-|0-0---0-7-0---0-|5-5-5---5-5-5---|3-3-3---3-5---6-|
E-|----------------|----------------|----------------|------0---------|
                   |                |                |                |
Guitar 2           |                |                |                |
e-|----------------|----------------|----------------|----------------|
B-|--------8-8-----|----8-8---------|--------7-7-----|----------------|
G-|----5-5---------|5-5---------5-5-|----5-5-----5-5-|----5-5---------|
D-|7-7---------7-7-|--------7-7-----|7-7-------------|5-5-----5-7--b8-|
A-|----------------|----------------|----------------|----------------|
E-|----------------|----------------|----------------|----------------|

Guitar 1
e-|----------------|----------------|----------------|----------------|
B-|----------------|----------------|----------------|----------------|
G-|----------------|----------------|----------------|----------------|
D-|----------------|----7-------7---|----7-------7---|----5-----------|
A-|--0-0-0-7-0-0-7-|0-0---0-7-0---0-|5-5-5---5-5-5---|3-3-3---3-5-3-5-|
E-|----------------|----------------|----------------|----------------|
                   |                |                |                |
Guitar 2           |                |                |                |
e-|----------------|----------------|----------------|----------------|
B-|--------8-8-----|----8-8---------|--------7-7-----|----------------|
G-|----5-5---------|5-5---------5-5-|----5-5-----5-5-|----5-----------|
D-|--7---------7-7-|--------7-7-----|7-7-------------|5-5-------------|
A-|----------------|----------------|----------------|------5-3-5-3-5-|
E-|----------------|----------------|----------------|----------------|

Guitar 1
e-|------------------|----------------|
B-|------------------|----------------|
G-|------------------|----------------|
D-|9-----------11-11-|----------------|
A-|0-----------0--0--|----------------|
E-|------------------|----------------|
                     |                |
Guitar 2             |                |
e-|------------------|----------------|
B-|------------------|----------------|
G-|2-----------2--2--|----------------|
D-|2-----------2--2--|----------------|
A-|0-----------0--0--|----------------|
E-|------------------|----------------|


Pre-Chorus
----------
Guitar 1
e-|-------------------|-----------------|----------------|----------------|
B-|0---0---0--0--0--10|--10-10----------|----------------|--------------0-|
G-|9---9---9--9--9--9-|--9--9-----------|----9-------9---|----9---------9-|
D-|11--11--11-11-11-11|--11-11--7h9p7-0-|--0-0---0-0-0---|----0---7-7-9-11|
A-|0---0---7--0--0--0-|--0--0---0-----9-|--9-9---9-9-9---|9-9-9---0-0-0-0-|
E-|-------------------|-----------------|----------------|----------------|
                      |                 |                |                |
Guitar 2              |                 |                |                |
e-|-------------------|-----------------|----------------|----------------|
B-|5---5---5--5--5--5-|--5--5---5-5-5-5-|--5-5---5-5-5---|5-5-5---5-5-5-5-|
G-|6---6---6--6--6--6-|--6--6---6-6-6-2-|--2-2---2-2-2---|2-2-2---2-2-2-6-|
D-|7---7---7--7--7--7-|--7--7---7-7-7-4-|--4-4---4-4-4---|4-4-4---4-4-4-7-|
A-|0---0---0--0--0--0-|--0--0---0-0-0-0-|--0-0---0-0-0---|0-0-0---0-0-0-0-|
E-|-------------------|-----------------|----------------|----------------|

Guitar 1
e-|--------------------|-----------------|----------------|----------------|
B-|--0--0---0--0--0--10|--10-10----------|----------------|----------------|
G-|--9--9---9--9--9--9-|--9--9-----------|----9-------9---|----9-----------|
D-|--11-11--11-11-11-11|--11-11--7h9p7-0-|--0-0---0-0-0---|----0---------0-|
A-|--0--0---7--0--0--0-|--0--0---0-----9-|--9-9---9-9-9---|9-9-9---9-\-0-x-|
E-|--------------------|-----------------|----------------|--------------3-|
                       |                 |                |                |
Guitar 2               |                 |                |                |
e-|--------------------|-----------------|----------------|--------------3-|
B-|--5--5---5--5--5--5-|--5--5---5-5-5-5-|--5-5---5-5-5---|5-5-5-----5---3-|
G-|--6--6---6--6--6--6-|--6--6---6-6-6-2-|--2-2---2-2-2---|2-2-2-------0-0-|
D-|--7--7---7--7--7--7-|--7--7---7-7-7-4-|--4-4---4-4-4---|4-4-4-----------|
A-|--0--0---0--0--0--0-|--0--0---0-0-0-0-|--0-0---0-0-0---|0-0-0-----------|
E-|--------------------|-----------------|----------------|----------------|


Chorus
------
Guitar 1
e-|----------------|----------------|----------------|----------------|
B-|----------------|----------------|----------------|----------------|
G-|----------------|----------------|----------------|----2-------2---|
D-|--0-0---0-----0-|--0-0---0-----0-|--0---0---0---2-|--2-2---2-2-2---|
A-|--x-x---x-----x-|--x-x---x-----x-|--x---x---x---0-|--0-0---0-0-0---|
E-|--3-3---3-5-3-2-|--2-2---2-3-2-1-|--1---1---3-----|----------------|
                   |                |                |                |
Guitar 2           |                |                |                |
e-|--3-3---3-----2-|--2-2---2-----3-|--3-0---0-0-0---|----------------|
B-|--3-3---3-----3-|--3-3---3-----3-|--3-3---3-3-3-2-|--2-2---2-2-2---|
G-|--0-0---0-----2-|--2-2---2-----2-|--2-2---2-2-2-2-|--2-2---2-2-2---|
D-|----------------|--------------3-|--3-3---3-3-3-2-|--2-2---2-2-2---|
A-|----------------|----------------|----------------|----------------|
E-|----------------|----------------|----------------|----------------|

Guitar 1
e-|----------------|----------------|----------------|----------------|
B-|----------------|----------------|----------------|----------------|
G-|----------------|----------------|----------------|----2-------2---|
D-|0---0---0-----0-|--0-0---0-----0-|--0---0---0---2-|--2-2---2-2-2-0-|
A-|x---x---x-----x-|--x-x---x-----x-|--x---x---x---0-|--0-0---0-0-0-x-|
E-|3---3---3-5-3-2-|--2-2---2-3-2-1-|--1---1---3-----|--------------3-|
                   |                |                |                |
Guitar 2           |                |                |                |
e-|3---3---3-----2-|--2-2---2-----3-|--3-0---0-0-0---|--------------3-|
B-|3---3---3-----3-|--3-3---3-----3-|--3-3---3-3-3-2-|--2-2---2-2-2-3-|
G-|0---0---0-----2-|--2-2---2-----2-|--2-2---2-2-2-2-|--2-2---2-2-2-0-|
D-|----------------|--------------3-|--3-3---3-3-3-2-|--2-2---2-2-2---|
A-|----------------|----------------|----------------|----------------|
E-|----------------|----------------|----------------|----------------|


Chorus
------
Guitar 1
e-|----------------|----------------|----------------|----------------|
B-|----------------|----------------|----------------|----------------|
G-|----------------|----------------|----------------|----2-------2---|
D-|--0-0---0-----0-|--0-0---0-----0-|--0---0---0---2-|--2-2---2-2-2---|
A-|--x-x---x-----x-|--x-x---x-----x-|--x---x---x---0-|--0-0---0-0-0---|
E-|--3-3---3-5-3-2-|--2-2---2-3-2-1-|--1---1---3-----|----------------|
                   |                |                |                |
Guitar 2           |                |                |                |
e-|--3-3---3-----2-|--2-2---2-----3-|--3-0---0-0-0---|----------------|
B-|--3-3---3-----3-|--3-3---3-----3-|--3-3---3-3-3-2-|--2-2---2-2-2---|
G-|--0-0---0-----2-|--2-2---2-----2-|--2-2---2-2-2-2-|--2-2---2-2-2---|
D-|----------------|--------------3-|--3-3---3-3-3-2-|--2-2---2-2-2---|
A-|----------------|----------------|----------------|----------------|
E-|----------------|----------------|----------------|----------------|

Guitar 1
e-|----------------|----------------|----------------|----------------|
B-|----------------|----------------|----------------|----------------|
G-|----------------|----------------|----------------|----2-------2---|
D-|0---0---0-----0-|--0-0---0-----0-|--0---0---0---2-|--2-2---2-2-2---|
A-|x---x---x-----x-|--x-x---x-----x-|--x---x---x---0-|--0-0---0-0-0---|
E-|3---3---3-5-3-2-|--2-2---2-3-2-1-|--1---1---3-----|----------------|
                   |                |                |                |
Guitar 2           |                |                |                |
e-|3---3---3-----2-|--2-2---2-----3-|--3-0---0-0-0---|----------------|
B-|3---3---3-----3-|--3-3---3-----3-|--3-3---3-3-3-2-|--2-2---2-2-2---|
G-|0---0---0-----2-|--2-2---2-----2-|--2-2---2-2-2-2-|--2-2---2-2-2---|
D-|----------------|--------------3-|--3-3---3-3-3-2-|--2-2---2-2-2---|
A-|----------------|----------------|----------------|----------------|
E-|----------------|----------------|----------------|----------------|

Guitar 1
e-|----------------|----------------|----------------|-----------------|
B-|----------------|----------------|----------------|-----------------|
G-|----5-------5---|----5-------5---|----5-------5---|----5-------5----|
D-|4-4-5---4-4-5---|4-4-5---4-4-5---|4-4-5---4-4-5---|4-4-5---4-4-5----|
A-|----------------|----------------|----------------|-----------------|
E-|----------------|----------------|----------------|-----------------|
                   |                |                |                 |
Guitar 2           |                |                |                 |
e-|----------------|----------------|----------------|-----------------|
B-|----------------|----------------|----------------|-----------------|
G-|----------------|----------------|----------------|-----------------|
D-|----------------|----------------|----------------|-----------------|
A-|9-9-10--9-9-10--|9-9-10--9-9-10--|9-9-10--9-9-10--|9-9-10--9-9-10---|
E-|----------------|----------------|----------------|-----------------|

Outro
-----
Guitar 1
e-|----------------|------------------|------------------|----------------|
B-|----------------|------------------|------------------|----------------|
G-|----------------|------------------|------------------|----------------|
D-|----------------|------------------|------------------|--------5-7---8-|
A-|0---0-0-0-0-0-0-|0-0-12-0-0-0-12-0-|0-0-0-0-12-0-12-0-|0-0-0-0-3-5---6-|
E-|----------------|------------------|------------------|----------------|
                   |                  |                  |                |
Guitar 2           |                  |                  |                |
e-|----------------|------------------|------------------|----------------|
B-|5-5-5-5-5-5-5-5-|8-8-8--8-8-8-8--5-|5-5-5-5-8--8-8--8-|8-8-8-8-5-7---8-|
G-|5-5-5-5-5-5-5-5-|5-5-5--5-5-5-5--5-|5-5-5-5-5--5-5--5-|5-5-5-5-5-7---8-|
D-|7-7-7-7-7-7-7-7-|7-7-7--7-7-7-7--7-|7-7-7-7-7--7-7--7-|7-7-7-7-5-7---8-|
A-|----------------|------------------|------------------|----------------|
E-|----------------|------------------|------------------|----------------|

Guitar 1
e-|----------------|------------------|------------------|----------------|
B-|----------------|------------------|------------------|----------------|
G-|----------------|------------------|------------------|----------------|
D-|----------------|------------------|------------------|--------5-7---8-|
A-|--0-0-0-0-0-0-0-|0-0-12-0-0-0-12-0-|0-0-0-0-12-0-12-0-|0-0-0-0-3-5---6-|
E-|----------------|------------------|------------------|----------------|
                   |                  |                  |                |play
Guitar 2           |                  |                  |                |3 times
e-|----------------|------------------|------------------|----------------|
B-|--5-5-5-5-5-5-5-|8-8-8--8-8-8-8--5-|5-5-5-5-8--8-8--8-|8-8-8-8-5-7---8-|
G-|--5-5-5-5-5-5-5-|5-5-5--5-5-5-5--5-|5-5-5-5-5--5-5--5-|5-5-5-5-5-7---8-|
D-|--7-7-7-7-7-7-7-|7-7-7--7-7-7-7--7-|7-7-7-7-7--7-7--7-|7-7-7-7-5-7---8-|
A-|----------------|------------------|------------------|----------------|
E-|----------------|------------------|------------------|----------------|

Guitar 1
e-|----------------|----------------|-----------------|----------------|
B-|----8-8-8-8---8-|8-8-8-8---8-8-8-|8-8-8-8-8-8-10-8-|----------------|
G-|----x-x-x-x---x-|x-x-x-x---x-x-x-|x-x-x-x-x-x-x--x-|----------------|
D-|----5-5-5-5---5-|5-5-5-5---5-5-5-|5-5-5-5-5-5-7--5-|--------5-7---8-|
A-|--0-------------|----------------|-----------------|--3/6\--3-5---6-|
E-|----------------|----------------|-----------------|----------------|
                   |                |                 |                |play
Guitar 2           |                |                 |                |4 times
e-|----------------|----------------|-----------------|----------------|
B-|--5-5-5-5-5-5-5-|8-8-8-8-8-8-8-5-|5-5-5-5-8-8-8--8-|8-8-8-8-5-7---8-|
G-|--5-5-5-5-5-5-5-|5-5-5-5-5-5-5-5-|5-5-5-5-5-5-5--5-|5-5-5-5-5-7---8-|
D-|--7-7-7-7-7-7-7-|7-7-7-7-7-7-7-7-|7-7-7-7-7-7-7--7-|7-7-7-7-5-7---8-|
A-|----------------|----------------|-----------------|----------------|
E-|----------------|----------------|-----------------|----------------|


3/4
Guitar 1
e-|------------|
B-|------------|
G-|------------|
D-|----5-7---8-|
A-|--0-3-5---6-|
E-|--0---------|
               |play
Guitar 2       |7 times
e-|------------|
B-|----5-7---8-|
G-|----5-7---8-|
D-|----5-7---8-|
A-|--0---------|
E-|--0---------|


Hope this helps learn the song
It took quite a long time to tab it all out and I'm 99% certain its all correct 
but pleasecorrect me if there are any mistakes and rate please
Thanks :)
comments
We did not receive enough feedback on this tab! Please rate:
print report bad tab
1 2 3 4 5
I want to post or [tab]
guest
You may want to rate the tab now too:
select rating
Please do not post tabs as comments. Select "correction" instead!