Oops, an error
Loading. Please wait.

Hey Johnny Park Tab

ver2
ver2

Intro

Interactive

More versions @911Tabs.com
20,913 views 36 this week
1 commentread comment
1 2 3 4 5
worth learning
x 5
Autoscroll
+/-
esc
set tempo
stop
Hey! There's an official Ultimate Guitar app which is ideal
for learning songs when you're away from computer. Get the app
WARNING: You are trying to view
                                    content from Ultimate-Guitar.com
                                    in an unauthorized application,
                                    which is prohibited.

                                    Please use an official Ultimate
                                    Guitar Tabs application for iPhone,
                                    iPad or Android to access legitimate
                                    chords, guitar, bass, and drum tabs
                                    from Ultimate-Guitar.com database.

                                    Type "ultimate guitar tabs" in Apple
                                    App Store's or Android Market's
                                    search to find the application.
Foo Fighters, Hey Johnny Park!.
 Tabbed by Pat,  sbelin@tampabay.rr.com .
  
		  	Hey, Johnny Park!		
                          
                          


Drop low E to D

Intro:
Guitar 1	
E-------------4--4-4--4-4-------------------2-2---4--4-4--4-4-----
B-------------3--3-3--3-3-------------------3-3---3--3-3--3-3-----
G-------------4--4-4--4-4-------------------2-2---4--4-4--4-4-----
D-9-9---7-7---2--2-2--2-2---2p0-2-4---5-5---0-0---2--2-2--2-2--2p0
A-9-9---7-7---2--2-2--2-2---2p0-2-4---5-5---------2--2-2--2-2--2p0
D-9-9---7-7---2--2-2--2-2---2p0-2-4---5-5---------2--2-2--2-2--2p0

Guitar 2
E----------------------------4-4--4-4--4------------------2-2-----
B------7------------7--------3-3--3-3--3------------------3-3-----
G----------7-6~-----7-7-6~---4-4--4-4--4------------------2-2-----
D--/9------------7-----------2-2--2-2--2--2-4--5-5--------0-0-----
A----------------------------2-2--2-2--2--2-4--5-5----------------
D----------------------------2-2--2-2--2--2-4--5-5-12\5-----------

Guitar 2 continued 
E-----------4-4--4-4---4------------------------------------------
B-----------3-3--3-3---3------------------------------------------
G-----------4-4--4-4---4------------------------------------------
D-----------2-2--2-2---2------------------------------------------
A-----------2-2--2-2---2------------------------------------------
D--5/12-----2-2--2-2---2------------------------------------------

Guitar 1
E-------------4--4-4--4-4---------------------2--2--2-2-2---------
B-------------3--3-3--3-3---------------------3--3--3-3-3---------
G-------------4--4-4--4-4---------------------2--2--2-2-2---------
D-9-9---7-7---2--2-2--2-2---2p0-2-4---5-5-----0--0--0-0-0---------
A-9-9---7-7---2--2-2--2-2---2p0-2-4---5-5-----0--0--0-0-0---------
D-9-9---7-7---2--2-2--2-2---2p0-2-4---5-5-----0--0--0-0-0---------

Guitar 2
E----------------------------4-4--4-4--4--------------2--2--2-2-2-
B------7------------7--------3-3--3-3--3--------------3--3--3-3-3-
G----------7-6~-----7-7-6~---4-4--4-4--4--------------2--2--2-2-2-
D--/9------------7-----------2-2--2-2--2--2-4--5------0--0--0-0-0-
A----------------------------2-2--2-2--2--2-4--5------0--0--0-0-0-
D----------------------------2-2--2-2--2--2-4--5-12/5-0--0--0-0-0-

Guitar 1
E-2---2--------2---2------xx-----2---2--------2-------------------
B-3---3--------3---3------xx-----3---3--------3-------------------
G-4---4--------2---2------xx-----4---4--------2-------------------
D-4---4--------2---2------xx-----4---4--------2-------------------
A-2---2--0--0--0---0----------2--2---2--0--0--0-------------------
D-----------------------------------------------------------------

Guitar 2
E---------------------3p2-----------------------------------------
B------------------------3----------------------------------------
G-----------------------------------------------------------------
B-----------------------------------------------------------------
A-----------------------------------------------------------------
D-----------------------------------------------------------------

Guitar 1
E--2--2-2--2-2--2--2---------------------------------4---4---4----
B--3--3-3--2-2--2--2------2--2-2--3--2---------------3---3---3----
G--4--4-4--4-4--4--4------2--2-2--2--2---------------4---4---4----
D--4--4-4--4-4--4--4------2--2-2--2--2---------------2---2---2----
A--2--2-2--2-2--2--2------0--0-0--0--0----------------------------
D-----------------------------------------------------------------

Guitar 2
E-----------------------------------------------------------------
B------2--3-------------------------------------------------------
G---2-------------------------------------------------------------
D-----------------------------------------------------------------
A------------------------------2p0h2--2p0h2--2p0h2--2p0h2--2--0---
D------------------2--2--------2p0h2--2p0h2--2p0h2--2p0h2--2--0---

Guitar 1
E--2--2---2-----------2--2---2--------2--2---2---------2--2--2----
B--3--3---3-----------3--3---3--------3--3---3---------3--3--3----
G--4--4---4-----------2--2---2--------4--4---4---------2--2--2----
D--4--4---4-----------2--2---2--------4--4---4---------2--2--2----
A--2--2---2-----------0--0---0--------2--2---2---------0--0--0----
D-----------------------------------------------------------------

Guitar 2
E------------------------3p2--------------------------------------
B----------------------------3-3----------------------------------
G-----------------------------------------------------------------
D-----------------------------------------------------------------
A-----------------------------------------------------------------
D-----------------------------------------------------------------

Guitar 1
E--2--2-2--2-2--2--2---------------------------------4---4---4----
B--3--3-3--2-2--2--2------2--2-2--3--2---------------3---3---3----
G--4--4-4--4-4--4--4------2--2-2--2--2---------------4---4---4----
D--4--4-4--4-4--4--4------2--2-2--2--2---------------2---2---2----
A--2--2-2--2-2--2--2------0--0-0--0--0----------------------------
D-----------------------------------------------------------------

Guitar 2
E-----------------------------------------------------------------
B------2--3-------------------------------------------------------
G---2-------------------------------------------------------------
D-----------------------------------------------------------------
A------------------------------2p0h2--2--2p0h2--2--2p0h2--2-------
D-----------------2--2---------2p0h2--2--2p0h2--2--2p0h2--2-------

Guitar 1
E-----------------------------------2--2--x-x--2--2--2--2--2------
B-----------------------------------3--3--x-x--3--3--3--3--3------
G-----------------------------------2--2--x-x--2--2--2--2--2------
D-2/---2-4--5--5-x-x-5--5--5--5--5--0--0-------0--0--0--0--0------
A-2/---2-4--5--5-x-x-5--5--5--5--5--------------------------------
D-2/---2-4--5--5-x-x-5--5--5--5--5--------------------------------

Guitar 2
E-----------------------------------2--2--x-x--2--2--2------------
B-----------------------------------3--3--x-x--3--3--3------------
G-----------------------------------2--2--x-x--2--2--2------------
D-2/---2-4--5--5-x-x-5--5--5--7--7--0--0-------0--0--0--7--7------
A-2/---2-4--5--5-x-x-5--5--5--7--7----------------------7--7------
D-2/---2-4--5--5-x-x-5--5--5--7--7----------------------7--7------

Guitar 1
E----------------------------2--2--x-x--2--2--2--2--2-------------
B----------------------------3--3--x-x--3--3--3--3--3-------------
G----------------------------2--2--x-x--2--2--2--2--2-------------
D--5--5--x-x-5--5--5--5--5---0--0-------0--0--0--0--0-------------
A--5--5--x-x-5--5--5--5--5----------------------------------------
D--5--5--x-x-5--5--5--5--5----------------------------------------

Guitar 2
E---------------------------2--2--x-x--2--2--2--------------------
B---------------------------3--3--x-x--3--3--3--------------------
G---------------------------2--2--x-x--2--2--2--------------------
D--5--5-x-x-5--5--5---7--7--0--0-------0--0--0--7--7--------------
A--5--5-x-x-5--5--5---7--7----------------------7--7--------------
D--5--5-x-x-5--5--5---7--7----------------------7--7--------------

Guitar 1
E----------------------------2--2--x-x--2--2--2--2--2-------------
B----------------------------3--3--x-x--3--3--3--3--3-------------
G----------------------------2--2--x-x--2--2--2--2--2-------------
D--5--5--x-x-5--5--5--5--5---0--0-------0--0--0--0--0-------------
A--5--5--x-x-5--5--5--5--5----------------------------------------
D--5--5--x-x-5--5--5--5--5----------------------------------------

Guitar 2
E----------------------------2--2--x-x--2--2--2--2--2-------------
B----------------------------3--3--x-x--3--3--3--3--3-------------
G----------------------------2--2--x-x--2--2--2--2--2-------------
D--5--5--x-x-5--5--5--7--7---0--0-------0--0--0--0--0-------------
A--5--5--x-x-5--5--5--7--7----------------------------------------
D--5--5--x-x-5--5--5--7--7----------------------------------------

Both Guitars
E-----------------------------------------------------------------
B-----------------------------------------------------------------
G-----5-5-5-5-5-5-5-----------------------------------------------
D-----5-5-5-5-5-5-5---3-3-3-3-0-0-0-0-----------------------------
A-----3-3-3-3-2-2-2-0-3-3-3-3-0-0-0-0-----------------------------
D-------------------0-3-3-3-3-0-0-0-0-----------------------------

E-----------------------------------------------------------------
B-----------------------------------------------------------------
G-----5-5-5-5-5-5-5-----------------------------------------------
D-----5-5-5-5-5-5-5---3-3-3-3-0-let-------------------------------
A-----3-3-3-3-2-2-2-0-3-3-3-3-0-it--------------------------------
D-------------------0-3-3-3-3-0-ring------------------------------

Guitar 1
E--2--2---2-----------2--2---2--------2--2---2---------2--2-------
B--3--3---3-----------3--3---3--------3--3---3---------3--3-------
G--4--4---4-----------2--2---2--------4--4---4---------2--2-------
D--4--4---4-----------2--2---2--------4--4---4---------2--2-------
A--2--2---2-----------0--0---0--------2--2---2---------0--0-------
D-----------------------------------------------------------------

Guitar 2
E------------------------3p2--------------------------------------
B-----------------------------------------------------------------
G-----------------------------------------------------------------
D-----------------------------------------------------------------
A-----------------------------------------------------------------
D-----------------------------------------------------------------

Guitar 1
E--2--2-2--2-2--2--2---------------------------------4---4---4----
B--3--3-3--2-2--2--2------2--2-2--3--2---------------3---3---3----
G--4--4-4--4-4--4--4------2--2-2--2--2---------------4---4---4----
D--4--4-4--4-4--4--4------2--2-2--2--2---------------2---2---2----
A--2--2-2--2-2--2--2------0--0-0--0--0----------------------------
D-----------------------------------------------------------------

Guitar 2
E-----------------------------------------------------------------
B------2--3-------------------------------------------------------
G---2-------------------------------------------------------------
D-----------------------------------------------------------------
A------------------------------2p0h2--2p0h2--2p0h2----------------
D-----------------2--2---------2p0h2--2p0h2--2p0h2----------------

Guitar 1
E-----------------------------------2--2--x-x--2--2--2--2--2------
B-----------------------------------3--3--x-x--3--3--3--3--3------
G-----------------------------------2--2--x-x--2--2--2--2--2------
D-2/---2-4--5--5-x-x-5--5--5--5--5--0--0-------0--0--0--0--0------
A-2/---2-4--5--5-x-x-5--5--5--5--5--------------------------------
D-2/---2-4--5--5-x-x-5--5--5--5--5--------------------------------

Guitar 2
E-----------------------------------2--2--x-x--2--2--2------------
B-----------------------------------3--3--x-x--3--3--3------------
G-----------------------------------2--2--x-x--2--2--2------------
D-2/---2-4--5--5-x-x-5--5--5--7--7--0--0-------0--0--0--7--7------
A-2/---2-4--5--5-x-x-5--5--5--7--7----------------------7--7------
D-2/---2-4--5--5-x-x-5--5--5--7--7----------------------7--7------

Guitar 1
E----------------------------2--2--x-x--2--2--2--2--2-------------
B----------------------------3--3--x-x--3--3--3--3--3-------------
G----------------------------2--2--x-x--2--2--2--2--2-------------
D--5--5--x-x-5--5--5--5--5---0--0-------0--0--0--0--0-------------
A--5--5--x-x-5--5--5--5--5----------------------------------------
D--5--5--x-x-5--5--5--5--5----------------------------------------

Guitar 2
E---------------------------2--2--x-x--2--2--2--------------------
B---------------------------3--3--x-x--3--3--3--------------------
G---------------------------2--2--x-x--2--2--2--------------------
D--5--5-x-x-5--5--5---7--7--0--0-------0--0--0--7--7--------------
A--5--5-x-x-5--5--5---7--7----------------------7--7--------------
D--5--5-x-x-5--5--5---7--7----------------------7--7--------------

Guitar 1
E----------------------------2--2--x-x--2--2--2--2--2-------------
B----------------------------3--3--x-x--3--3--3--3--3-------------
G----------------------------2--2--x-x--2--2--2--2--2-------------
D--5--5--x-x-5--5--5--5--5---0--0-------0--0--0--0--0-------------
A--5--5--x-x-5--5--5--5--5----------------------------------------
D--5--5--x-x-5--5--5--5--5----------------------------------------

Guitar 2
E----------------------------2--2--x-x--2--2--2--2--2-------------
B----------------------------3--3--x-x--3--3--3--3--3-------------
G----------------------------2--2--x-x--2--2--2--2--2-------------
D--5--5--x-x-5--5--5--7--7---0--0-------0--0--0--0--0-------------
A--5--5--x-x-5--5--5--7--7----------------------------------------
D--5--5--x-x-5--5--5--7--7----------------------------------------

Both Guitars
E-----------------------------------------------------------------
B-----------------------------------------------------------------
G-----5-5-5-5-5-5-5-----------------------------------------------
D-----5-5-5-5-5-5-5---3-3-3-3-0-0-0-0-----------------------------
A-----3-3-3-3-2-2-2-0-3-3-3-3-0-0-0-0-----------------------------
D-------------------0-3-3-3-3-0-0-0-0-----------------------------

E-----------------------------------------------------------------
B-----------------------------------------------------------------
G-----5-5-5-5-5-5-5-----------------------------------------------
D-----5-5-5-5-5-5-5---3-3-3-3-0-0-0-0-----------------------------
A-----3-3-3-3-2-2-2-0-3-3-3-3-0-0-0-0-----------------------------
D-------------------0-3-3-3-3-0-0-0-0-----------------------------

E-----------------------------------------------------------------
B-----------------------------------------------------------------
G-----5-5-5-5-5-5-5-----------------------------------------------
D-----5-5-5-5-5-5-5---3-3-3-3-0-0-0-0-----------------------------
A-----3-3-3-3-2-2-2-0-3-3-3-3-0-0-0-0-----------------------------
D-------------------0-3-3-3-3-0-0-0-0-----------------------------

E-----------------------------------------------------------------
B-----------------------------------------------------------------
G-----5-5-5-5-9-9-9-9---------------------------------------------
D-----5-5-5-5/9-9-9-9---------------------------------------------
A-----3-3-3-3/7-7-7-7---------------------------------------------
D-----------------------------------------------------------------

Guitar 1
E-------------4--4-4--4-4--4-------------------4--4-4--4-4--4-4--4
B-------------3--3-3--3-3--3-------------------3--3-3--3-3--3-3--3
G-------------4--4-4--4-4--4-------------------4--4-4--4-4--4-4--4
D-9-9---7-7---2--2-2--2-2--2--7----9-9---7-7---2--2-2--2-2--2-2--2
A-9-9---7-7---2--2-2--2-2--2--7----9-9---7-7---2--2-2--2-2--2-2--2
D-9-9---7-7---2--2-2--2-2--2--7----9-9---7-7---2--2-2--2-2--2-2--2

Guitar 2
E---------------------------4-4--4-4--4---------------------------
B------7------------7-------3-3--3-3--3---------7-----------7-----
G----------7-6~-----7-7-6~--4-4--4-4--4------------7-6~-----7-7-6~
D--/9------------7----------2-2--2-2--2--7--/9------------7-------
A---------------------------2-2--2-2--2--7------------------------
D---------------------------2-2--2-2--2--7------------------------

Guitar 2 continued
E----------0----------------0-------------------------------------
B--------0---0------------0---------------------------------------
G-----1h2-----2p1---2p1-2-----------------------------------------
D-----------------------------------------------------------------
A-----------------------------------------------------------------
D-----------------------------------------------------------------

Guitar 1
E-------------4--4-4--4-4--4--------------------------------------
B-------------3--3-3--3-3--3--------------------------------------
G-------------4--4-4--4-4--4--------------------------------------
D-9-9---7-7---2--2-2--2-2--2--5-----------------------------------
A-9-9---7-7---2--2-2--2-2--2--5-----------------------------------
D-9-9---7-7---2--2-2--2-2--2--5-----------------------------------

Guitar 2
E----------------------------------4-4--4-4--4--------------------
B-------------7------------7-------3-3--3-4--4--------------------
G-----------------7-6~-----7-7-6~--4-4--4-4--4--------------------
D---------9-/-----------7----------2-2--2-2--2--------------------
A----------------------------------2-2--2-2--2--------------------
D----------------------------------2-2--2-2--2--------------------

Guitar 1
E---------------------------------------2--2--2--2----------------
B---------------------------------------3--3--3--3----------------
G---------------7--7--7--7--------------2--2--2--2----------------
D---5--5--5--5--7--7--7--7--5--5--5--5--0--0--0--0----------------
A---5--5--5--5--5--5--5--5--5--5--5--5----------------------------
D---5--5--5--5--------------5--5--5--5----------------------------

Guitar 2
E---7--7--7--7--2--2--2--2--7--7--7--7--2--2-5b8p5----------------
B---8--8--8--8--3--3--3--3--8--8--8--8--3--3----------------------
G---7--7--7--7--2--2--2--2--7--7--7--7--2--2----------------------
D-----------------------------------------------------------------
A-----------------------------------------------------------------
D-----------------------------------------------------------------

There is a part here where the effects kick in (Both Guitars)
E-----------------------------------------------------------------
B-----------------------------------------------------------------
G-----------------------------------------------------------------
D-5--5-5--4--4-4--------------------------------------------------
A-5--5-5--4--4-4--------------------------------------------------
D-5--5-5--4--4-4--------------------------------------------------

Both Guitars
E----------------------------------2--2-2-2--2-2-2-2-2--2--2------
B----------------------------------3--3-3-3--3-3-3-3-3--3--3------
G----------------------------------2--2-2-2--2-2-2-2-2--2--2------
D-9--9-9-9--9-9-9-9-9--9--9--------0--0-0-0--0-0-0-0-0--0--0------
A-9--9-9-9--9-9-9-9-9--9--9-7-9b/2--------------------------7-9b/2
D-9--9-9-9--9-9-9-9-9--9--9--guitar 2 does the bending&slide part-  

E----------------------------------2--2-2-2--2-2-2-2-2--2--2------
B----------------------------------3--3-3-3--3-3-3-3-3--3--3------
G----------------------------------2--2-2-2--2-2-2-2-2--2--2------
D-9--9-9-9--9-9-9-9-9--9--9--------0--0-0-0--0-0-0-0-0--0--0------
A-9--9-9-9--9-9-9-9-9--9--9-7-9b/2--------------------------7-9b/2
D-9--9-9-9--9-9-9-9-9--9--9--guitar 2 does the bending&slide part-

E-----------------------------------------------------------------
B-----------------------------------------------------------------
G-----------------------------------------------------------------
D-9--9-9-9--9-9-9-9-9--9--9--7--7-7-7--7-7-7-7-7--7--7--0---------
A-9--9-9-9--9-9-9-9-9--9--9--7--7-7-7--7-7-7-7-7--7--7--0---------
D-9--9-9-9--9-9-9-9-9--9--9--7--7-7-7--7-7-7-7-7--7--7--0---------

E---------4--4-4---------4--4-4---------4---xxxxxx----------------
B---------3--3-3---------3--3-3---------3---xxxxxx----------------
G---------4--4-4---------4--4-4---------4---xxxxxx----------------
D--2p0h2--2--2-2--2p0h2--2--2-2--2p0h2--2---xxxxxx--2--4----------
A--2p0h2--2--2-2--2p0h2--2--2-2--2p0h2--2---xxxxxx--2--4----------
D--2p0h2--2--2-2--2p0h2--2--2-2--2p0h2--2---xxxxxx--2--4----------

Guitar 1
E-----------------------------2--2--2--2--2--2--2--2--------------
B-----------------------------3--3--3--3--3--3--3--3--------------
G-----------------------------2--2--2--2--2--2--2--2--------------
D---5--5--5--5---4--4--4--4---0--0--0--0--0--0--0--0--------------
A---5--5--5--5---4--4--4--4---0--0--0--0--0--0--0--0--------------
D---5--5--5--5---4--4--4--4---0--0--0--0--0--0--0--0--------------

Guitar 2
E-------------------------------------------2--2--2--2--2--2--2--2
B---------------7--7--7h9--7-<--play softly-3--3--3--3--3--3--3--3
G-------------------------------------------2--2--2--2--2--2--2--2
D---5--5--5--5------------------------------0--0--0--0--0--0--0--0
A---5--5--5--5------------------------------0--0--0--0--0--0--0--0
D---5--5--5--5------------------------------0--0--0--0--0--0--0--0

Guitar 1
E-----------------------------2--2--2--2--2--2--2--2--------------
B-----------------------------3--3--3--3--3--3--3--3--------------
G-----------------------------2--2--2--2--2--2--2--2--------------
D---5--5--5--5---4--4--4--4---0--0--0--0--0--0--0--0--------------
A---5--5--5--5---4--4--4--4---0--0--0--0--0--0--0--0--------------
D---5--5--5--5---4--4--4--4---0--0--0--0--0--0--0--0--------------

Guitar 2
E-------------------------------------------2--2--2--2--2--2--2--2
B---------------7--7--7h9--7-<--play softly-3--3--3--3--3--3--3--3
G-------------------------------------------2--2--2--2--2--2--2--2
D---5--5--5--5------------------------------0--0--0--0--0--0--0--0
A---5--5--5--5------------------------------0--0--0--0--0--0--0--0
D---5--5--5--5------------------------------0--0--0--0--0--0--0--0

Guitar 1
E-----------------------------2--2--2--2--2--2--2--2--------------
B-----------------------------3--3--3--3--3--3--3--3--------------
G-----------------------------2--2--2--2--2--2--2--2--------------
D---5--5--5--5---4--4--4--4---0--0--0--0--0--0--0--0--------------
A---5--5--5--5---4--4--4--4---0--0--0--0--0--0--0--0--------------
D---5--5--5--5---4--4--4--4---0--0--0--0--0--0--0--0--------------

Guitar 2
E-------------------------------------------2--2--2--2------------
B---------------7--7--7h9--7-<--play softly-3--3--3--3------------
G-------------------------------------------2--2--2--2------------
D---5--5--5--5------------------------------0--0--0--0------------
A---5--5--5--5------------------------------0--0--0--0------------
D---5--5--5--5------------------------------0--0--0--0------------

Guitar 2 continued
E-----------------------------------------------------------------
B--------------------11--11--11--11--12--12--12--13---------------
G-----------------------------------------------------------------
D-----------------------------------------------------------------
A-----------------------------------------------------------------
D-----------------------------------------------------------------

Guitar 1
E-----------------------------------------------------------------
B-----------------------------------------------------------------
G-----5-5-5-5-5-5-5-----------------------------------------------
D-----5-5-5-5-5-5-5---3-3-3-3-0-0-0-0-----------------------------
A-----3-3-3-3-2-2-2-0-3-3-3-3-0-0-0-0-----------------------------
D-------------------0-3-3-3-3-0-0-0-0-----------------------------

Guitar 2
E-----------------------------------------------------------------
B----------------------------------7--7--7h9--7-------------------
G-----5-5-5-5-5-5-5-----------------------------------------------
D-----5-5-5-5-5-5-5---3-3-3-3-------------------------------------
A-----3-3-3-3-2-2-2-0-3-3-3-3-------------------------------------
D-------------------0-3-3-3-3-------------------------------------

Guitar 1
E-----------------------------------------------------------------
B-----------------------------------------------------------------
G-----5-5-5-5-5-5-5-----------------------------------------------
D-----5-5-5-5-5-5-5---3-3-3-3-0-0-0-0-----------------------------
A-----3-3-3-3-2-2-2-0-3-3-3-3-0-0-0-0-----------------------------
D-------------------0-3-3-3-3-0-0-0-0-----------------------------

Guitar 2
E----------------------------------5--5--5h7--5-------------------
B-----------------------------------------------------------------
G-----5-5-5-5-5-5-5-----------------------------------------------
D-----5-5-5-5-5-5-5---3-3-3-3-------------------------------------
A-----3-3-3-3-2-2-2-0-3-3-3-3-------------------------------------
D-------------------0-3-3-3-3-------------------------------------

Guitar1
E-----------------------------------------------------------------
B-----------------------------------------------------------------
G-----5-5-5-5-5-5-5-----------------------------------------------
D-----5-5-5-5-5-5-5---3-3-3-3-0-0-0-0-----------------------------
A-----3-3-3-3-2-2-2-0-3-3-3-3-0-0-0-0-----------------------------
D-------------------0-3-3-3-3-0-0-0-0-----------------------------

Guitar 2
E-----------------------------------------------------------------
B----------------------------------7--7--7h9--7-------------------
G-----5-5-5-5-5-5-5-----------------------------------------------
D-----5-5-5-5-5-5-5---3-3-3-3-------------------------------------
A-----3-3-3-3-2-2-2-0-3-3-3-3-------------------------------------
D-------------------0-3-3-3-3-------------------------------------

Both Guitars
E-----------------------------------------------------------------
B-----------------------------------------------------------------
G-----5-5-5-5-5-5-5-----------------------------------------------
D-----5-5-5-5-5-5-5---3-3-3-3-------------------------------------
A-----3-3-3-3-2-2-2-0-3-3-3-3-------------------------------------
D-------------------0-3-3-3-3-------------------------------------

The Ending:
Both Guitars
E-----------------------------------------------------------------
B-----------------------------------------------------------------
G-----------------------------------------------------------------
D----0----0----5----0---------------------------------------------
A----0----0----5----0---------------------------------------------
D----0----0----5----0---------------------------------------------

				
				Tabbed by: Patrick Belin 
:: Ultimate Guitar Archive :: 
http://www.ultimate-guitar.com 

comments
print report bad tab
1 comment total.
0 reply
imaddicted wrote on April 2 2003, 12:00 am

its called dropped D
its easier to understand

I want to post or [tab]
guest
You may want to rate the tab now too:
select rating
Please do not post tabs as comments. Select "correction" instead!