Oops, an error
Loading. Please wait.

Hey Johnny Park Tab

ver5
ver5

Intro

Interactive

More versions @911Tabs.com
3,148 views 12 this week
no commentswrite comment
1 2 3 4 5
accurate
x 1
Autoscroll
+/-
esc
set tempo
stop
Contributor
Difficulty
Tuning
intermediate
D A D G B E
WARNING: You are trying to view
                                    content from Ultimate-Guitar.com
                                    in an unauthorized application,
                                    which is prohibited.

                                    Please use an official Ultimate
                                    Guitar Tabs application for iPhone,
                                    iPad or Android to access legitimate
                                    chords, guitar, bass, and drum tabs
                                    from Ultimate-Guitar.com database.

                                    Type "ultimate guitar tabs" in Apple
                                    App Store's or Android Market's
                                    search to find the application.
Song:Hey, Johnny Park!
Artist:Foo Fighters
Album:The Colour and the Shape

Tabbed by ben3296(bptrules@hotmail.com)

Guitar 1 - distortion, drop D tuning (EBGDAD)
Guitar 2 - distortion, drop D tuning (EBGDAD)
Guitar 3 - clean, drop D tuning (EBGDAD)

4/4
Quite slow tempo - about 85 bpm

PM-palm mute
lr-let ring
/-slide up
\-slide down
b-bend
r-release


Intro
-----
Guitar 1
E-|----------------|----------------|4-44-44---------|--------2-2-----|
B-|----------------|----------------|3-33-33---------|8-8-----3-3-----|
G-|----------------|4-4-----2-2-----|4-44-44---------|7-7-----2-2-----|
D-|----------------|4-4-----2-2-----|2-22-22---------|5-5-----0-0-----|
A-|----------------|2-2-----0-0-----|2-22-22---2024--|5-5-------------|
D-|----------------|----------------|2-22-22---2024--|5-5-------------|
                   |                |                |                |
Guitar 2           |                |                |                |
E-|----------------|----------------|----------------|----------------|
B-|----------------|--70------7-----|---7--7---------|----------------|
G-|----------------|----76----7-76--|--77--7---------|----------------|
D-|-----(drums)----|9-------7-------|9---------------|----------------|
A-|----------------|----------------|----------------|----------------|
D-|----------------|----------------|----------------|----12\-----5/-0|


Guitar 1
E-|4-44-44---------|----------------|4-44-44---------|--------2-2-2-2-|
B-|3-33-33---------|----------------|3-33-33---------|8-8-----3-3-3-3-|
G-|4-44-44---------|4-4-----2-2-----|4-44-44---------|7-7-----2-2-2-2-|
D-|2-22-22---------|4-4-----2-2-----|2-22-22---------|5-5-----0-0-0-0-|
A-|2-22-22---2020--|2-2-----0-0-----|2-22-22---2024--|5-5-------------|
D-|2-22-22---2020--|----------------|2-22-22---2024--|5-5-------------|
                   |                |                |                |
Guitar 2           |                |                |                |
E-|----------------|----------------|----------------|--------2-2-2-2-|
B-|---7--7---------|--70------7-----|---7--7---------|------0-3-3-3-3-|
G-|---7--7---------|----76----7-76--|--77--7---------|------0---------|
D-|9---------------|9-------7-------|9---------------|------0---------|
A-|----------------|----------------|----------------|----------------|
D-|----------------|----------------|----------------|----12\---------|




Verse
-----
Guitar 3
E-|----------------|----2-------3p2xx|----------------|----2-------3p2--|
B-|----3-------33--|----3-----3-3--xx|----3-------33--|----3----------3-|
G-|----4-------44--|----2----------xx|----4-------44--|----2-----------2|
D-|----4-------44--|0-0-0----------xx|----4-------44--|0-0-0------------|
A-|----2-------22--|-----------------|2---2-------22--|-----------------|
D-|----------------|-----------------|----------------|-----------------|
                    PM_ lr_________   PM               PM_ lr___________

Guitar 3
E-|----------------|----------------|----4-------4---|----4-----------|
B-|----3--3333-----|--2-3--3-32-----|----3-------3---|----3-----------|
G-|----4--4444-----|2------2-22-----|----4-------4---|----4-----------|
D-|----4--4444-----|-------2-22-----|----2-------2---|----2-----------|
A-|2-2-2--2222-----|-------0-00-----|----------------|--------202020--|
D-|----------------|----------------|2-2-------------|--------202020--|
   PM_              lr____           PM_                      lr_____


Verse
-----
Guitar 3
E-|----------------|----2--2---------|----------------|----2--2xxx-3p2--|
B-|----3--3----3---|----3--3---------|----3--3----3---|----3--3xxx----3-|
G-|----4--4----4---|----3--3----0h2--|----4--4----4---|----2--2xxx-----2|
D-|----4--4----4---|0-0-0--0000----00|----4--4----4---|0-0-0--0xxx------|
A-|2-2-2--22-2-2---|-----------------|2-2-2--22-2-2---|-----------------|
D-|----------------|-----------------|----------------|-----------------|
   PM_     PM_      PM_     PM     PM____     PM_      PM_         lr___


Guitar 3
E-|----------------|----------------|----4-------4-44|----4-44--------|
B-|----3--3--3-3333|----------------|----3-------3-33|----3-33--------|
G-|----4--4--4-4444|----------------|----4-------4-44|----4-44--------|
D-|----4--4--4-4444|2-2-2-22-22--222|----2-------2-22|----2-22--------|
A-|2-2-2--2--2-2222|0-0-0-00-00--000|2-2----0202-----|202-------------|
D-|----------------|----------------|2-2----0202-----|202-------------|
   PM_             |                |                |                |
Guitars 1 & 2      |                |                |                |
E-|----------------|----------------|----------------|----------------|
B-|----------------|----------------|----------------|----------------|
G-|----------------|----------------|----------------|----------------|
D-|----------------|----------------|----------------|--------2---2-4-|
A-|----------------|----------------|----------------|--------2---2-4-|
D-|----------------|----------------|----------------|--------2---2-4-|



Chorus
------
Guitars 1 & 2
E-|----------------|2-2-xx2-2-2-2-2-|
B-|8-8-xx8-8-8-8---|3-3-xx3-3-3-3-3-|
G-|7-7-xx7-7-7-7---|2-2-xx2-2-2-2-2-|play
D-|5-5-xx5-5-5-5---|0-0-xx0-0-0-0-0-|3 times
A-|5-5-xx5-5-5-5---|----------------|
D-|5-5-xx5-5-5-5---|----------------|

Guitars 1 & 2
E-|----------------|----------------|----------------|----------------|
B-|----------------|6-6-6-6-3-3-3-3-|----------------|6-6-6-6-3-------|
G-|----------------|5-5-5-5-2-2-2-2-|----------------|5-5-5-5-2-------|
D-|5-5-5-5-5-5-5---|3-3-3-3-0-0-0-0-|5-5-5-5-5-5-5---|3-3-3-3-0-------|
A-|3-3-3-3-2-2-2-0-|3-3-3-3-0-0-0-0-|3-3-3-3-2-2-2-0-|3-3-3-3-0-------|
D-|--------------0-|3-3-3-3-0-0-0-0-|--------------0-|3-3-3-3-0-------|



Verse
-----
Guitar 3
E-|----------------|----2--2---------|----------------|----2--2xxx-3p2--|
B-|----3--3----3---|----3--3---------|----3--3----3---|----3--3xxx----3-|
G-|----4--4----4---|----3--3----0h2--|----4--4----4---|----2--2xxx-----2|
D-|----4--4----4---|0-0-0--0000----00|----4--4----4---|0-0-0--0xxx------|
A-|2-2-2--22-2-2---|-----------------|2-2-2--22-2-2---|-----------------|
D-|----------------|-----------------|----------------|-----------------|
   PM_     PM_      PM_     PM     PM____     PM_      PM_         lr___


Guitar 3
E-|----------------|----------------|----4-------4-44|----4-44--------|
B-|----3--3--3-3333|----------------|----3-------3-33|----3-33--------|
G-|----4--4--4-4444|----------------|----4-------4-44|----4-44--------|
D-|----4--4--4-4444|2-2-2-22-22--222|----2-------2-22|----2-22--------|
A-|2-2-2--2--2-2222|0-0-0-00-00--000|2-2----0202-----|202-------------|
D-|----------------|----------------|2-2----0202-----|202-------------|
   PM_             |                |                |                |
Guitars 1 & 2      |                |                |                |
E-|----------------|----------------|----------------|----------------|
B-|----------------|----------------|----------------|----------------|
G-|----------------|----------------|----------------|----------------|
D-|----------------|----------------|----------------|--------2---2-4-|
A-|----------------|----------------|----------------|--------2---2-4-|
D-|----------------|----------------|----------------|--------2---2-4-|



Chorus
------
Guitars 1 & 2
E-|----------------|2-2-xx2-2-2-2-2-|
B-|8-8-xx8-8-8-8---|3-3-xx3-3-3-3-3-|
G-|7-7-xx7-7-7-7---|2-2-xx2-2-2-2-2-|play
D-|5-5-xx5-5-5-5---|0-0-xx0-0-0-0-0-|3 times
A-|5-5-xx5-5-5-5---|----------------|
D-|5-5-xx5-5-5-5---|----------------|

Guitars 1 & 2
E-|----------------|----------------|
B-|----------------|6-6-6-6-3-3-3-3-|
G-|----------------|5-5-5-5-2-2-2-2-|play
D-|5-5-5-5-5-5-5---|3-3-3-3-0-0-0-0-|3 times
A-|3-3-3-3-2-2-2-0-|3-3-3-3-0-0-0-0-|
D-|--------------0-|3-3-3-3-0-0-0-0-|

Guitars 1 & 2
E-|----------------|
B-|----------------|
G-|----------------|
D-|5-5-5-5/9-9-9-9-|
A-|3-3-3-3/7-7-7-7-|
D-|----------------|



Interlude
---------
Guitar 1
E-|----------------|4-44-44---444---|----------------|4--44-44----------|
B-|----------------|3-33-33---333---|----------------|3--33-33----------|
G-|4-4-----2-2-----|4-44-44---4442--|4-4-----2-2-----|4--44-44----------|
D-|4-4-----2-2-----|2-22-22---2222--|4-4-----2-2-----|2--22-22----------|
A-|2-2-----0-0-----|2-22-22---2220--|2-2-----0-0-----|2--22-22---2-020--|
D-|----------------|2-22-22---222---|----------------|2--22-22---2-020--|
                   |                |                |                  |
Guitar 2           |                |                |                  |
E-|----------------|----------------|----------------|----0-----------0-|
B-|--70------7-----|---7--7---------|--70------7-----|---0-0---------0--|
G-|----76----7-76--|--77--7---------|----76----7-76--|1h2---21---2p12---|
D-|9-------7-------|9---------------|9-------7-------|------------------|
A-|----------------|----------------|----------------|------------------|
D-|----------------|----------------|----------------|------------------|



Guitar 1
E-|----------------|4-44-44---------|----------------|------------------|----------------|
B-|----------------|3-33-33---------|----------------|------------------|----------------|
G-|4-4-----2-2-----|4-44-44---------|--------7-7-7-7-|--------7-7-7---7-|----------------|
D-|4-4-----2-2-----|2-22-22---------|5-5-5-5-7-7-7-7-|5-5-5-5-7-7-7---7-|----------------|
A-|2-2-----0-0-----|2-22-22---2024--|5-5-5-5-5-5-5-5-|5-5-5-5-5-5-5---5-|----------------|
D-|----------------|2-22-22---2024--|5-5-5-5---------|5-5-5-5-----------|----------------|
                   |                |                |                  |                |
Guitar 2           |                |                |                  |                |
E-|----------------|----------------|7-7-7-7-2-2-2-2-|7-7-7-7-2-2-5b7r5-|----------------|
B-|--70------7-----|---7--7---------|8-8-8-8-3-3-3-3-|8-8-8-8-3-3-------|----------------|
G-|----76----7-76--|--77--7---------|7-7-7-7-2-2-2-2-|7-7-7-7-2-2-------|----------------|
D-|9-------7-------|9---------------|----------------|------------------|----------------|
A-|----------------|----------------|----------------|------------------|----------------|
D-|----------------|----------------|----------------|------------------|5--5--5-4--4--4-|



Verse
-----
Guitar 1
E-|----------------|2-222-22222-2-2-|----------------|2-222-22222-2-2-|
B-|3-333-33333-3-3-|3-333-33333-3-3-|3-333-33333-3-3-|3-333-33333-3-3-|
G-|4-444-44444-4-4-|2-222-22222-2-2-|4-444-44444-4-4-|2-222-22222-2-2-|
D-|4-444-44444-4-4-|0-000-00000-0-0-|4-444-44444-4-4-|0-000-00000-0-0-|
A-|2-222-22222-2-2-|----------------|2-222-22222-2-2-|----------------|
D-|----------------|----------------|----------------|----------------|
                   |                |                |                |
Guitar 2           |                |                |                |
E-|----------------|----------------|----------------|----------------|
B-|----------------|----------------|----------------|----------------|
G-|4-------------7-|7-------------11|4~~~~~~~~~~~~~11|7-------------11|
D-|x-------------x-|x-------------x-|x-------------x-|x-------------x-|
A-|2-------------9-|5-------------9-|2~~~~~~~~~~~~~9-|5-------------9-|
D-|----------------|----------------|----------------|----------------|


Guitar 1
E-|----------------|----------------|4-4-4-44444-4-44|444-4-xxxxxx----|
B-|3-333-33333-3-3-|----------------|3-3-3-33333-3-33|333-3-xxxxxx----|
G-|4-444-44444-4-4-|2-222-22222-2-2-|4-4-4-44444-4-44|444-4-xxxxxx----|
D-|4-444-44444-4-4-|2-222-22222-2-2-|2-2-2-22222-2-22|222-2-xxxxxx----|
A-|2-222-22222-2-2-|0-000-00000-0-0-|2-2-2-22222-2-22|222-2-xxxxxx24--|
D-|----------------|----------------|2-2-2-22222-2-22|222-2-xxxxxx24--|
                   |                |                |                |
Guitar 2           |                |                |                |
E-|----------------|----------------|----------------|----------------|
B-|----------------|----------------|----------------|----------------|
G-|4~~~~~~~~~~~~~~~|----------------|9~9~9~99999~9~99|999~9-----------|
D-|x---------------|7---------------|x-x-x-xxxxx-x-xx|xxx-x-----------|
A-|2~~~~~~~~~~~~~~~|x---------------|7~7~7~77777~7~77|777~7-------24--|
D-|----------------|7---------------|----------------|------------24--|




Outro-Chorus
------------
Guitar 1
E-|----------------------|2-2-2-2-2--2--2--2--|
B-|8-8-8-8-8--8--8-----8-|3-3-3-3-3--3--3--3--|
G-|7-7-7-7-7--7--7-----7-|2-2-2-2-2--2--2--2--|
D-|5-5-5-5-5--5--5-----5-|0-0-0-0-0--0--0--0--|
A-|5-5-5-5-5--5--5-----5-|--------------------|
D-|5-5-5-5-5--5--5-----5-|--------------------|
                         |                    |play
Guitar 2                 |                    |2 times
E-|----------------------|--------------------|
B-|----------------------|--------------------|
G-|--------11-11-11/12\11|--------11-11-11-11-|
D-|--------x--x--x-------|--------x--x--x--x--|
A-|--------9--9--9-/10\9-|--------9--9--9--9--|
D-|----------------------|--------------------|


Guitar 1
E-|----------------------|2---2-2-2--2--------0-|
B-|8-8-8-8-8--8--8-----8-|3---3-3-3--3--------0-|
G-|7-7-7-7-7--7--7-----7-|2---2-2-2--2--------0-|
D-|5-5-5-5-5--5--5-----5-|0---0-0-0--0----------|
A-|5-5-5-5-5--5--5-----5-|----------------------|
D-|5-5-5-5-5--5--5-----5-|-------------/15\-----|
                         |                      |
Guitar 2                 |                      |
E-|----------------------|----------------------|
B-|----------------------|--------10-10-10/12-0-|
G-|--------11-11-11/12\11|--------x--x--x-----0-|
D-|--------x--x--x-------|--------7--7--7-/9--0-|
A-|--------9--9--9-/10\9-|----------------------|
D-|----------------------|----------------------|



Guitar 1
E-|----------------|-----------------------|
B-|----------------|6-6-6-6-3--3--3-----3--|
G-|----------------|5-5-5-5-2--2--2-----2--|
D-|5-5-5-5-5-5-5---|3-3-3-3-0--0--0-----0--|
A-|3-3-3-3-2-2-2-0-|3-3-3-3-0--0--0-----0--|
D-|--------------0-|3-3-3-3-0--0--0-----0--|
                   |                       |play
Guitar 2           |                       |3 times
E-|----------------|-----------------------|
B-|----------------|-----------------------|
G-|----------------|--------11-11-11/12\11-|
D-|----------------|--------x--x--x--------|
A-|----------------|--------9--9--9-/10\9--|
D-|----------------|-----------------------|



Guitar 1 & 2
E-|----------------|----------------|
B-|----------------|6-6-6-6---------|
G-|----------------|5-5-5-5---------|
D-|5-5-5-5-5-5-5---|3-3-3-3-0-0-5-0-|
A-|3-3-3-3-2-2-2-0-|3-3-3-3-0-0-5-0-|
D-|--------------0-|3-3-3-3-0-0-5-0-|


Hope this helps learn the song 
Please comment and rate
Sorry if there's any mistakes but I think this is all correct - please correct me
Thanks :)
comments
We did not receive enough feedback on this tab! Please rate:
print report bad tab
1 2 3 4 5
I want to post or [tab]
guest
You may want to rate the tab now too:
select rating
Please do not post tabs as comments. Select "correction" instead!