Oops, an error
Loading. Please wait.

Ill Stick Around Tab

ver4
ver4

Whole song

More versions @911Tabs.com
7,444 views 1 this week
1 commentread comment
1 2 3 4 5
accurate
x 7
Autoscroll
+/-
esc
set tempo
stop
Contributor
WARNING: You are trying to view
                                    content from Ultimate-Guitar.com
                                    in an unauthorized application,
                                    which is prohibited.

                                    Please use an official Ultimate
                                    Guitar Tabs application for iPhone,
                                    iPad or Android to access legitimate
                                    chords, guitar, bass, and drum tabs
                                    from Ultimate-Guitar.com database.

                                    Type "ultimate guitar tabs" in Apple
                                    App Store's or Android Market's
                                    search to find the application.
Song-I'll Stick Around
Artist-Foo Fighters
Album-Foo Fighters

Tabbed by ben3296(bptrules@hotmail.com)

Quite Fast-about 140bpm
4/4
Standard Tuning

Chords Used
-----------
G---35543x
G/D-xx000x
F---13321x
Am--x0221x
Bb--11333x
C9--33533x



Intro
-----

e-|-----------------|-----------------|-----------------|-----------------|
B-|-----------------|-----------------|-----------------|-----------------|
G-|-----------------|-----------------|-----------------|-----------------|play
D-|----xx8-8------10|----xx8-8------10|----xx8-8------10|----xx8-8--------|twice
A-|5-5-xx6-6-8-10-8-|5-5-xx6-6-8-10-8-|5-5-xx6-6-8-10-8-|5-5-xx6-6-8-10-8-|
E-|3-3-------6-8----|3-3-------6-8----|3-3-------6-8----|3-3-------6-8--6-|



Verse
-----
   G            G/D F            G/D Am           G/D G            G/D
e-|------3---------|------1---------|------0---------|------3---------|
B-|----3-----------|----1-----------|----1-----------|----3-----------|
G-|--4-------------|--2-------------|--2-------------|--4-------------|
D-|5---------------|3---------------|2---------------|5---------------|
A-|----------------|----------------|----------------|----------------|
E-|----------------|----------------|----------------|----------------|

   Bb           G/D Am           G/D G
e-|------1---------|------0---------|----------------|10--------------|
B-|----3-----------|----1-----------|----10--10----10|----------------|
G-|--3-------------|--2-------------|--12--12--12----|----------------|
D-|3---------------|2---------------|------------12--|----------------|
A-|----------------|----------------|10--------------|----------------|
E-|----------------|----------------|----------------|----------------|



Verse
-----
   G            G/D F            G/D Am           G/D G            G/D
e-|------3---------|------1---------|------0---------|------3---------|
B-|----3-----------|----1-----------|----1-----------|----3-----------|
G-|--4-------------|--2-------------|--2-------------|--4-------------|
D-|5---------------|3---------------|2---------------|5---------------|
A-|----------------|----------------|----------------|----------------|
E-|----------------|----------------|----------------|----------------|

   Bb           G/D Am           G/D
e-|------1---------|------0---------|
B-|----3-----------|----1-----------|
G-|--3-------------|--2-------------|
D-|3---------------|2---------------|
A-|----------------|----------------|
E-|----------------|----------------|




Interlude
---------

e-|-----------------|-----------------|-----------------|-----------------|
B-|-----------------|-----------------|-----------------|-----------------|
G-|-----------------|-----------------|-----------------|-----------------|
D-|----xx8-8------10|----xx8-8------10|----xx8-8------10|----xx8-8--------|
A-|5-5-xx6-6-8-10-8-|5-5-xx6-6-8-10-8-|5-5-xx6-6-8-10-8-|5-5-xx6-6-8-10-8-|
E-|3-3-------6-8----|3-3-------6-8----|3-3-------6-8----|3-3-------6-8--6-|



Verse
-----
   G            G/D F            G/D Am           G/D G            G/D
e-|------3---------|------1---------|------0---------|------3---------|
B-|----3-----------|----1-----------|----1-----------|----3-----------|
G-|--4-------------|--2-------------|--2-------------|--4-------------|
D-|5---------------|3---------------|2---------------|5---------------|
A-|----------------|----------------|----------------|----------------|
E-|----------------|----------------|----------------|----------------|

   Bb           G/D Am           G/D G
e-|------1---------|------0---------|----------------|10--------------|
B-|----3-----------|----1-----------|----10--10----10|----------------|
G-|--3-------------|--2-------------|--12--12--12----|----------------|
D-|3---------------|2---------------|------------12--|----------------|
A-|----------------|----------------|10--------------|----------------|
E-|----------------|----------------|----------------|----------------|



Verse
-----
   G            G/D F            G/D Am           G/D G            G/D
e-|------3---------|------1---------|------0---------|------3---------|
B-|----3-----------|----1-----------|----1-----------|----3-----------|
G-|--4-------------|--2-------------|--2-------------|--4-------------|
D-|5---------------|3---------------|2---------------|5---------------|
A-|----------------|----------------|----------------|----------------|
E-|----------------|----------------|----------------|----------------|

   Bb           G/D Am           G/D G
e-|------1---------|------0---------|----------------|10--------------|
B-|----3-----------|----1-----------|----10--10----10|----------------|
G-|--3-------------|--2-------------|--12--12--12----|----------------|
D-|3---------------|2---------------|------------12--|----------------|
A-|----------------|----------------|10--------------|----------------|
E-|----------------|----------------|----------------|----------------|




Pre-Chorus
----------
   Bb            G                C9
e-|----3-----------|----------------|----------------|----------------|
B-|3-------3-------|--------------3-|----------------|----------------|
G-|3---------3-----|----0---------3-|----------------|----------------|
D-|3-----------3---|--3-----------2-|----------------|----------------|
A-|1-------------2-|--------------3-|----------------|----------------|
E-|----------------|----------------|----------------|----------------|

   Bb            G                C9
e-|----3-----------|----------------|----------------|----------------|
B-|3-------3-------|--------------3-|------------3-3-|3-3-3-3-3-3-3-3-|
G-|3---------3-----|----0---------3-|------------3-3-|3-3-3-3-3-3-3-3-|
D-|3-----------3---|--3-----------2-|------------2-2-|2-2-2-2-2-2-2-2-|
A-|1-------------2-|--------------3-|------------3-3-|3-3-3-3-3-3-3-3-|
E-|----------------|----------------|----------------|----------------|



Chorus
------
e-|-----------------|-----------------|-----------------|-----------------|
B-|-----------------|-----------------|-----------------|-----------------|
G-|-----------------|-----------------|-----------------|-----------------|play
D-|----xx8-8------10|----xx8-8------10|----xx8-8------10|----xx8-8--------|twice
A-|5-5-xx6-6-8-10-8-|5-5-xx6-6-8-10-8-|5-5-xx6-6-8-10-8-|5-5-xx6-6-8-10-8-|
E-|3-3-------6-8----|3-3-------6-8----|3-3-------6-8----|3-3-------6-8--6-|



Verse
-----
   G            G/D F            G/D Am           G/D G            G/D
e-|------3---------|------1---------|------0---------|------3---------|
B-|----3-----------|----1-----------|----1-----------|----3-----------|
G-|--4-------------|--2-------------|--2-------------|--4-------------|
D-|5---------------|3---------------|2---------------|5---------------|
A-|----------------|----------------|----------------|----------------|
E-|----------------|----------------|----------------|----------------|

   Bb           G/D Am           G/D G
e-|------1---------|------0---------|----------------|10--------------|
B-|----3-----------|----1-----------|----10--10----10|----------------|
G-|--3-------------|--2-------------|--12--12--12----|----------------|
D-|3---------------|2---------------|------------12--|----------------|
A-|----------------|----------------|10--------------|----------------|
E-|----------------|----------------|----------------|----------------|



Verse
-----
   G            G/D F            G/D Am           G/D G            G/D
e-|------3---------|------1---------|------0---------|------3---------|
B-|----3-----------|----1-----------|----1-----------|----3-----------|
G-|--4-------------|--2-------------|--2-------------|--4-------------|
D-|5---------------|3---------------|2---------------|5---------------|
A-|----------------|----------------|----------------|----------------|
E-|----------------|----------------|----------------|----------------|

   Bb           G/D Am           G/D G
e-|------1---------|------0---------|----------------|10--------------|
B-|----3-----------|----1-----------|----10--10----10|----------------|
G-|--3-------------|--2-------------|--12--12--12----|----------------|
D-|3---------------|2---------------|------------12--|----------------|
A-|----------------|----------------|10--------------|----------------|
E-|----------------|----------------|----------------|----------------|




Pre-Chorus
----------
   Bb            G                C9
e-|----3-----------|----------------|----------------|----------------|
B-|3-------3-------|--------------3-|----------------|----------------|
G-|3---------3-----|----0---------3-|----------------|----------------|
D-|3-----------3---|--3-----------2-|----------------|----------------|
A-|1-------------2-|--------------3-|----------------|----------------|
E-|----------------|----------------|----------------|----------------|

   Bb            G                C9
e-|----3-----------|----------------|----------------|----------------|
B-|3-------3-------|--------------3-|------------3-3-|3-3-3-3-3-3-3-3-|
G-|3---------3-----|----0---------3-|------------3-3-|3-3-3-3-3-3-3-3-|
D-|3-----------3---|--3-----------2-|------------2-2-|2-2-2-2-2-2-2-2-|
A-|1-------------2-|--------------3-|------------3-3-|3-3-3-3-3-3-3-3-|
E-|----------------|----------------|----------------|----------------|



Chorus
------
e-|-----------------|-----------------|-----------------|-----------------|
B-|-----------------|-----------------|-----------------|-----------------|
G-|-----------------|-----------------|-----------------|-----------------|play
D-|----xx8-8------10|----xx8-8------10|----xx8-8------10|----xx8-8--------|four
A-|5-5-xx6-6-8-10-8-|5-5-xx6-6-8-10-8-|5-5-xx6-6-8-10-8-|5-5-xx6-6-8-10-8-|times
E-|3-3-------6-8----|3-3-------6-8----|3-3-------6-8----|3-3-------6-8--6-|



Bridge
------
e-|----------------|----------------|3-3-3-3-3-3-3-3-|2-2-2-0---3-0---|
B-|4-4-4-4-4-4-4-4-|4-4-4-4-4-4-4-4-|3-3-3-3-3-3-3-3-|3-3-3-3---3-3---|
G-|3-3-3-3-3-3-3-3-|2-2-2-2-2-2-2-2-|0-0-0-0-0-0-0-0-|2-2-2-2---2-2---|play
D-|1-1-1-1-1-1-1-1-|1-1-1-1-1-1-1-1-|0-0-0-0-0-0-0-0-|0-0-0-0---0-0---|five
A-|1-1-1-1-1-1-1-1-|3-3-3-3-3-3-3-3-|2-2-2-2-2-2-2-2-|----------------|times
E-|----------------|1-1-1-1-1-1-1-1-|3-3-3-3-3-3-3-3-|----------------|

e-|----------------|----------------|
B-|4-4-4-4-4-4-4-4-|4-4-4-4-4-4-4-4-|
G-|3-3-3-3-3-3-3-3-|2-2-2-2-2-2-2-2-|
D-|1-1-1-1-1-1-1-1-|1-1-1-1-1-1-1-1-|
A-|1-1-1-1-1-1-1-1-|3-3-3-3-3-3-3-3-|
E-|----------------|1-1-1-1-1-1-1-1-|




Outro
-----
e-|-----------------|-----------------|-----------------|-----------------|
B-|-----------------|-----------------|-----------------|-----------------|
G-|-----------------|-----------------|-----------------|-----------------|play
D-|----xx8-8------10|----xx8-8------10|----xx8-8------10|----xx8-8--------|twice
A-|5-5-xx6-6-8-10-8-|5-5-xx6-6-8-10-8-|5-5-xx6-6-8-10-8-|5-5-xx6-6-8-10-8-|
E-|3-3-------6-8----|3-3-------6-8----|3-3-------6-8----|3-3-------6-8--6-|

e-|-----------------|
B-|-----------------|
G-|-----------------|
D-|-----------------|
A-|5-5--------------|
E-|3-3--------------|
1 comment total.
0 reply
Fred026 wrote on May 17 2011, 11:37 am

this is quite difficult!

I want to post or [tab]
guest
You may want to rate the tab now too:
select rating
Please do not post tabs as comments. Select "correction" instead!