Oops, an error
Loading. Please wait.

Learn To Fly Bass Tab

18,079 views 69 this week
1 commentread comment
1 2 3 4 5
excellent!
x 13
Autoscroll
+/-
esc
set tempo
stop
Hey! There's an official Ultimate Guitar app which is ideal
for learning songs when you're away from computer. Get the app
WARNING: You are trying to view
                                    content from Ultimate-Guitar.com
                                    in an unauthorized application,
                                    which is prohibited.

                                    Please use an official Ultimate
                                    Guitar Tabs application for iPhone,
                                    iPad or Android to access legitimate
                                    chords, guitar, bass, and drum tabs
                                    from Ultimate-Guitar.com database.

                                    Type "ultimate guitar tabs" in Apple
                                    App Store's or Android Market's
                                    search to find the application.
Artist: Foo Fighters
Album: There Is Nothing Left To Loose
Song: Learn To Fly
Tabbed By: Phil B  
Bass Tab Army  www.basstabarchive.com

*= This sign means to hit the note and let it ring

Chorus and Intro

2x
G--------------------------------------------------
D--------------------------------------------------
A-222222-------------------------------------------
E--------222222-0000000000-------------------------

Verse

4x On the 4th time keep hitting the E string
G--------------------------------------------------
D--------------------------------------------------
A-2*-----------------------------------------------
E----2*--0*----------------------------------------

Part after Chorus

G--------------------------------------------------
D-5555555555--77777777777--------------------------
A--------------------------------------------------
E--------------------------------------------------


Chorus Variation
G--------------------------------------------------
D-5555555555--77777777777--2222222-44--------------
A--------------------------------------------------
E--------------------------------------------------


G-----------------------------------------------------
D-----------------------------------------------------
A-222222---------5555555------------------------------
E--------3333333---------0000000-2-33333333-5555555---


G-----------------------------------------------------
D-----------------------------------------------------
A-222222---------5-5----------------------------------
E--------3333333--5-5-0000000-2-33333333-5555555------


Bit at the end
G-----------------------------------------------
D------------2-4--------------------------------
A-2*-------2------------------------------------
E-----------------------------------------------

Here is everything you need for the song just work out
when to play them. If you are looking for any other bass
tabs please check out the Bass tab archive or email me at
new_breeder@hotmail.com where i will do my best to help
ENJOY!
comments
print report bad tab
1 comment total.
+1 reply
tydogg2443 wrote on April 9 2014, 01:01 pm

The third Chorus Variation is...
G|-----------------------------------------------------
D|-----------------------------------------------------
A|-22222---------5---5---------------------------------
E|-------3333333---5---2\-0000000-2-33333333-5555555---

I want to post or [tab]
guest
You may want to rate the tab now too:
select rating
Please do not post tabs as comments. Select "correction" instead!