Oops, an error
Loading. Please wait.

One By One Tab

30,277 views 27 this week
3 commentsread comments
1 2 3 4 5
accurate
x 9
add to favorites launch autoscroll
font size
0
reset
Autoscroll
+/-
esc
set tempo
stop
Contributor
WARNING: You are trying to view
                                    content from Ultimate-Guitar.com
                                    in an unauthorized application,
                                    which is prohibited.

                                    Please use an official Ultimate
                                    Guitar Tabs application for iPhone,
                                    iPad or Android to access legitimate
                                    chords, guitar, bass, and drum tabs
                                    from Ultimate-Guitar.com database.

                                    Type "ultimate guitar tabs" in Apple
                                    App Store's or Android Market's
                                    search to find the application.
-------------------------------------------------------------------------------
			     SONG NAME - Band Name
-------------------------------------------------------------------------------
Tabbed by: Various
Email: soccerdude_7134@hotmail.com

1.  ALL MY LIFE
2.  LOW
3.  HAVE IT ALL
4.  TIMES LIKE THESE
5.  DISENCHANTED LULLABY
6.  TIRED OF YOU
7.  HALO
8.  LONELY AS YOU
9.  OVERDRIVE
10. BURN AWAY
11. COME BACK



-----------
ALL MY LIFE
-----------

Tabbed by: Rob Joyce
Email: rob_joyce@hotmail.com
Tabbed: 09/09/02

Standard tuning
_______________________________________________________________________

Intro
(One Guitar)

e|-----------------|----------------|
B|-----------------|----------------|
G|-----------------|----------------|
D|-----------------|----------------|
A|-555-555-555-555-|555-555-555-555-| x5
E|-333-333-333-333-|333-333-333-333-|

_______________________________________________________________________

Main Riff
(Two Guitars)

Guitar 1:
(Distortion)
    
e|------------------|----------------|
B|------------------|----------------|\
G|------------------|----------------| \
D|------------------|----------------|  \
A|-555-55--55-557-7-|55-55--55-558-8-|   \
E|-333033-033-335-5-|33033-033-336-6-|    \
                                           \
                                            \_____x2
Guitar 2:                                   /
(Distortion)                               /
                                          /
e|------------------|----------------|   /
B|------------------|----------------|  /
G|-333333-333-335-5-|33333-333-336-6-| /
D|------------------|----------------|/
A|-111111-111-113-3-|11111-111-114-4-|
E|------------------|----------------|

_______________________________________________________________________
    
Verse
(Two Guitars)

Guitar 1 (Palm-Muted):

e|-------------------------------|-------------------------------|
B|-------------------------------|-------------------------------|
G|-------------------------------|-------------------------------|
D|-------------------------------|-------------------------------|
A|-5-5-555-5---5-5-555-5---7---7-|-5-5-555-5---5-5-555-5---8---8-|
E|-3-3-333-3---3-3-333-3---5---5-|-3-3-333-3---3-3-333-3---6---6-|


Guitar 2 (Distortion):

e|-------------------------------|-------------------------------|
B|-------------------------------|-------------------------------|
G|---3-----3-----3-----3---5---5-|---3-----3-----3-----3---6---6-|
D|-------------------------------|-------------------------------|
A|-------------------------------|-------------------------------|
E|-------------------------------|-------------------------------|

_______________________________________________________________________

Chorus
(Two Guitars)

Guitar 1 (Distortion):
 
e|-3-3-3333-33-333-3-3-3333-33-333-|-3-3-3333-33-333---------|
B|-3-3-3333-33-333-3-3-3333-33-333-|-3-3-3333-33-333---------|
G|-0-0-0000-00-000-0-0-0000-00-000-|-0-0-0000-00-000-3-3-333-|\
D|-0-0-0000-00-000-0-0-0000-00-000-|-----------------3-3-333-| \
A|---------------------------------|-3-3-3333-33-333-1-1-111-|  \
E|-3-3-3333-33-333-3-3-3333-33-333-|-0-0-0001-11-111---------|   \
                                                                  \__x2
                                                                  /
Guitar 2 (Distortion):                                           /
                                                                /
e|---------------------------------|                           /
B|---------------------------------|                          /
G|-8-8-8888-88-888-7-7-7777-77-777-|
D|---------------------------------|
A|-6-6-6666-66-666-5-5-5555-55-555-|
E|---------------------------------|

_______________________________________________________________________

Interlude Part 1
(One guitar only)

*= Harmonic on 3rd fret

e|-----------------|----------------|
B|-----------------|----------------|
G|-----------------|----------------|
D|-----------------|----------------|
A|-555-555-555-555-|555-555-555-555-| x1
E|-333-333-333-333-|333-333-333-333-|

then:

e|-----------------|----------------|
B|-----------------|----------------|
G|-----------------|----------------|
D|-----------------|----------------|
A|-555-555-555-555-|555-555-555-555-| x2
E|-333*333*333*333*|333*333*333*333*|

"All my life I've been searching for something..."

_______________________________________________________________________

Interlude Part 2
(Two Guitars)

Guitar 1
(Distortion)

e|-3333333333333333|3333333333333333|
B|-3333333333333333|3333333333333333|\
G|-0000000000000000|0000000000000000| \
D|-0000000000000000|0000000000000000|  \
A|-----------------|----------------|   \
E|-3333333333333333|3333333333333333|    \
                                          \
"...All night long I dream of the day..."  \
                                            \
                                             \
Guitar 2                                      \
(Distortion)                                   ------ x6
                                              /
Here guitar 2 bends slowly up from 5 to 7 on /
g-string. Use the same timing as with       /
guitar 1's part.                           /
                                          /
e|-----------------|----------------|    /
B|-----------------|----------------|   /
G|-5>>>>>>bu>>>>>>7|5>>>>>>bu>>>>>>7|  /
D|-----------------|----------------| /
A|-----------------|----------------|/
E|-----------------|----------------|


Bass Line:

(It sounds like theres actually three guitars for this part, but i 
just figured a bass guitar could do this part, but if u have a third
guitarist or a sampler on a pedal, its just the intro riff.

G|-----------------|----------------|
D|-----------------|----------------|
A|-----------------|----------------|  x6
E|-333-333-333-333-|333-333-333-333-|

_______________________________________________________________________

Interlude Part 3
(Two Guitars)

The notes in brackets are not played the first time around, but are 
played every other time around (the chords are in groups of 3 but the 
first time they strike the chords in this part, they only play them twice).

Guitar 1
(Distortion)

e|-(3)33-333-333-333|-333-333-333-333|
B|-(3)33-333-333-333|-333-333-333-333|\
G|-(0)00-000-000-000|-000-000-000-000| \
D|-(0)00-000-000-000|-000-000-000-000|  \
A|------------------|----------------|   \
E|-(3)33-333-333-333|-333-333-333-333|    \
                                           \
                                            \_______x4
Guitar 2                                    /
(Distortion)                               /
                                          /
e|------------------|----------------|   /
B|------------------|----------------|  /
G|------------------|----------------| /
D|-(5)55-555-555-555|-555-555-555-555|/
A|-(5)55-555-555-555|-555-555-555-555|
E|-(3)33-333-333-333|-333-333-333-333|

_______________________________________________________________________

End Solo (Wah-wah?)

This is played to guitar 1 part of interlude 3.

e|-66666666666666bu8-6bu8|-6666666666666bu9-6bu9|
B|-----------------------|----------------------|
G|-----------------------|----------------------| x2
D|-----------------------|----------------------|
A|-----------------------|----------------------|
E|-----------------------|----------------------|


---
LOW
---

Tabbed by James Graham 
guitardude17_uk@yahoo.co.uk

Tuning Drop-D (D A D G B E)

Intro/Verse X 6

E -----------------------------------------------------
B -----------------------------------------------------
G --------------------------15-15-15-15---17-17-17-17--
D ---------------------------x--x--x--x----x--x--x--x--
A --------------------------13-13-13-13---15-15-15-15--
D --5-5-5-5-5-5-5-5-5-5--------------------------------


E -----------------------------------------------------
B -----------------------------------------------------
G --------------------------15-15-15-15---11-11-11-11--
D ---------------------------x--x--x--x----x--x--x--x--
A --------------------------13-13-13-13----9--9--9--9--
D --4-4-4-4-4-4-4-4-4-4--------------------------------


I have not put the exact amount of strums, listen to
the record to get the exact timing on strumming.


Bridge X 2
E --------------------------------------------------------------------------------------------------
B --------------------------------------------------------------------------------------------------
G --------------------------------------------------------------------------------------------------
D --------------------------------------------------------------------------------------------------
A --------------------------------------------------------------------------------------------------
D --5-5-5-5-5-5-5-5-5-5---4-4-4-4-4-4-4-4-4---8-8-8-8-8-8-8-8-8-8-8-8---2-2-2-2-2-2-2-2-2-2-2-2-2-2-

"You'll be my passer by, I'll be your one to pass through......"


Fill (end of the 1st bridge)

A ------3---          *Play after the first bridge only
D --0-2-----
 

Intro/Verse X 5

Bridge X 2


Chorus  X 4

E --------------------------------------------------------
B --------------------------------------------------------
G ----------------5--5--5-(5)(5)(5)(5)(5)-----------------
D --1--1--1-------5--5--5-(5)(5)(5)(5)(5)-----------------
A --1--1--1-------3--3--3-(3)(3)(3)(3)(3)-----------------
D --1--1--1-----------------------------------------------

"Taking it as low as you go.."


Intro/Verse X 2

Bridge X 2 


Chorus  X 4

E --------------------------------------------------------
B --------------------------------------------------------
G ----------------5--5--5-(5)(5)(5)(5)(5)-----------------
D --1--1--1-------5--5--5-(5)(5)(5)(5)(5)-----------------
A --1--1--1-------3--3--3-(3)(3)(3)(3)(3)-----------------
D --1--1--1-----------------------------------------------


Solo X 2 
Lead Guitar X 2

E ---------------------------------------------------
B ---------------------------------------------------
G --12-----14-----15-----14-----17-----15-----14-----
D ---x------x------x------x------x------x------x-----
A --10-----12-----13-----12-----15-----13-----12-----
D ---------------------------------------------------
  X 12    X 4   X 12    X 8    X 4    X 2    X 2 

2nd Guitar X 2 (Played in the background of the octaves)

E ----------------------------------------------------------
B ----------------------------------------------------------
G ----------------------------------------------------------
D ----------------------------------------------------------
A -----------------------------------------------------3----
D --5-5-5-5---4-4-4-4-4---3-3-3-3-3---2-2-2-2-2----0-2------


Fill X 3

E ------------------------------------
B ------------------------------------
G ------------------------------------
D ------------------------------------
A ------------------------------------
D --5-5-5-5-5-5-5-5-5----------------- 


Chorus X 8



Outro X 8

E ------------------------------------
B ------------------------------------
G -------------------------*5---------
D -------------------------*5---------
A ------------------------------------
D --5-5-5-5-5-5-5-5-5-5---------------


Key

( ) = Play only one time through
 *  = Natural Harmonic
 x  = Mute


-----------
HAVE IT ALL
-----------

Tabbed by: Rob Joyce
Email: rob_joyce@hotmail.com
Tabbed: 21/10/02

Standard tuning.

> (or b)= Bend up (eg 6>7 means bend from fret 6 to fret 7)
p= Pull off (eg 7p0 means pull off and play the string loose)
\= Slide Down (eg 12\ means slide down from the 12th fret)

_____________________________________________________________________________

Intro
(I use a wah-wah in the down position)    
(By the way the '10' in the intro is fret 10, not fret 1 then 0!)

e|-----------------------------------------
B|-----------------------------------------
G|-----------------------------------------
D|---10---10---10---10---10---10---10---10-
A|-9910-9910-9910-9910-9910-9910-9910-9910-
E|-----------------------------------------
_____________________________________________________________________________

Intro Continued

Guitar 1:

e|---------------------------------------------------------------------
B|-------------------------------------------7-------7-------5-------5- \
G|-------------------------------------------7-------7-------5-------5-  \
D|-7------7-------7-------7---------7----7-7-7---7-7-7---5-5-5---5-5-5-   \
A|-0--0-0-6>7p0-0-6>7p0-0---0-6>7p0---0--5-5-----5-5-----3-3-----3-3---    \
E|---------------------------------------------------------------------     \
						                             \
						                              ------- x2
Guitar 2:					                             /
    						                            /
e|---------------------------------------------------------------------    /
B|---------------------------------------------------------------------   / 
G|---------------------------------------------------------------------  /
D|-7------------------------------------------------------------------- /
A|-0-------------------------------------------------------------------
E|---------------------------------------------------------------------

_____________________________________________________________________________

Verse

Guitar 1:

(Note in the part with the bend-up, pull-off sixth fret on the A string
I used 'bp' BELOW the '670' instead of '6b7p0' like above, but it means the 
same thing. Its just to make the second guitar part fit in on tabs.


e|--------------------------------------------------------------
B|--------------------------------------------7-------7-------5-
G|-5-7---8------------------------------------7-------7-------5-
D|-5-7---8--7-7-7-7-----7-----7---7---7---7-7-7---7-7-7---5-5-5-
A|-3-5---6--0-0-0-670-0-670-0---0-670---0-5-5-----5-5-----3-3---
E|-----------------bp----bp--------bp---------------------------
                  

Guitar 2:
Part 1
Played with guitar 1 during verses and twice before verse 1.

e|--------------------------------------------------------------
B|--------8-8-8-8-8-8-8-8-8-8-8-8-8-8-8-8-7-7-7---7-7-7---5-5-5-
G|--------5-5-5-5-5-5-5-5-5-5-5-5-5-5-5-5-----------------------
D|--------------------------------------------------------------
A|--------------------------------------------------------------
E|--------------------------------------------------------------


Part 2
Played twice after part 1 before verse 1 and after 2nd chorus.

e|------------------------------------------------------------------------
B|----------------8-8---------8-8-----------------7-7---------------------
G|------------5-5---------5-5---------5-5-----5-5-----5-5-----5-5---------
D|--------7-7---------7-7---------7-7-----7-7-------------5-5-----5-5-7---
A|------------------------------------------------------------------------
E|------------------------------------------------------------------------

_______________________________________________________________________________

Bridge into Chorus

e|--------------
B|--------------
G|--------------
D|-9------11-11-
A|-0------0--0--
E|--------------
       
________________________________________________________________________________

Chorus

Part 1-
Guitar 1

      
e|-0-0-0000--00--000-|-0-0-0000--00--000-|
B|-0-0-0002--22--222-|-3-3-3333--33--333-|
G|-2-2-2222--22--222-|-2-2-2222--22--222-|  x2
D|-2-2-2222--22--222-|-0-0-0000--00--000-|
A|-0-0-0000--00--000-|-------------------|
E|-------------------|-------------------|

Part 2-
Guitar 1

e|--------------------|-----------------|
B|--------------------|-----------------|\
G|--------------------|-----------------| \
D|--------------------|--------2-22-222-|  \
A|----5-5-5555-55-555-|-3-3-3330-00-000-|   \
E|----3-3-3332-22-222-|-1-1-111---------|    \
 					      \
					       \
Guitar 2					------ x2
(Only do the slide the first time around)      /
  					      /
e|----0-0-0000-00-000-|-0-0-0000-00-000-|    /
B|----3-3-3333-33-333-|-3-3-3332-22-222-|   /
G|----2-2-2222-22-222-|-2-2-2222-22-222-|  /
D|----0-0-0000-00-000-|-----------------| /
A|--------------------|-----------------|/
E|-12\----------------|-----------------|

_________________________________________________________________________________

Interlude
(After 2nd Chorus)

  
e|---------------------------------|----------------------------------|
B|---------------------------------|----------------------------------|
G|---------------------------------|----------------------------------|
D|-11--11--11119-7---7-7---7-7-7-7-|----10-------10-------10-------10-|  x2
A|-0---0---0-0-0-0---0-0---0-0-0-0-|9-9-10---9-9-10---9-9-10---9-9-10-|
E|---------------------------------|----------------------------------|

_________________________________________________________________________________

Outro

Guitar 1
(This part is played x16 over guitar 2's 'part 1' then 'part 2')

e|--------------------------------|
B|--------------------------------|
G|--------------------------------|
D|-7--7-7-------------7-------7---| x16
A|-0--0-0-670-0-670-0---0-670---0-|
E|---------bp----bp--------bp-----|


Guitar 2

Part 1:

e|-----------------------------------------------------
B|-----------------------------------------------------
G|-2-------------------------------------------5-7---8-
D|-2--bu 1/2-----------------------------------5-7---8-  x4
A|-0-------------------------------------------3-5---6-
E|-----------------------------------------------------

Part 2:
(121212 means 12,12,12,12, not 1,2,1,2 
and 101010 means 10,10,10, not 1,0,1,0)

e|------------------------------|-----------------------------|
B|------------------------------|-----------------------------|
G|-1212121212-1212121212-121212-|1212121212-12121212125-7---8-|
D|------------------------------|---------------------5-7---8-|  x4
A|-1010101010-1010101010-101010-|1010101010-10101010103-5---6-|
E|------------------------------|-----------------------------|

_______________________________________________________________________________

Guitar 1 and 2

e|-------------------------------------------|
B|-------------------------------------------|
G|-5-7---8\---5-7---8\---5-7---8\---5-7---8\-|
D|-5-7---8\---5-7---8\---5-7---8\---5-7---8\-|  x2
A|-3-5---6\---3-5---6\---3-5---6\---3-5---6\-|
E|-------------------------------------------|


----------------
TIMES LIKE THESE
----------------
Transcribed by Aidan Hampson


C x 3 2 0 1 3 
Em7 0 2 2 0 3 0 
Dadd4 x 5 4 0 3 5 


Gtr I (E A D G B E) - 'Clean Guitar'
Gtr II (E A D G B E) - 'Distorted Guitar 1'
Gtr III (E A D G B E) - 'Distorted Guitar 2'
Gtr IV (E A D G B E) - 'Distorted Guitar 3'


   Intro
    Fast Rock Q=146
    D7
   4/4
    Gtr I
    E E E E Q  E E   E E Q  E E E E   E E E E Q  E E   E E Q  E E E E
||--5-5-5-5-5--5-5-|-5-5-5--5-5-5---|-5-5-5-5-5--5-5-|-5-5-5--5-5-5-----||
||o-3-3-3-3-3--3-3-|-3-3-3--3-3-3---|-3-3-3-3-3--3-3-|-3-3-3--3-3-3----o||
||--5-5-5-5-5--5-5-|-5-5-5--5-5-5---|-5-5-5-5-5--5-5-|-5-5-5--5-5-5-----||
||--0-0-0-0-0--0-0-|-0-0-0--0-0-0---|-0-0-0-0-0--0-0-|-0-0-0--0-0-0-----||
||o-0-5-5-0-5--0-5-|-5-0-5--0-5-5---|-0-5-5-0-5--0-5-|-5-0-5--0-5-5----o||
||-----------------|----------------|----------------|------------------||


  D
                           3/4
  Gtr II
   E  E  E  E  E  E  E  E    E  E  E  E  E  E
|-------------------------|-------------------|
|-------------------------|-------------------|
|-------------12-11-------|-------12-11-------|
|--0-12-10--0--------0-12-|-10--0-------------|
|-------------------------|-------------12-10-|
|-------------------------|-------------------|
|
| Gtr III
|  E  E  E  E  E  E  E  E    E  E  E  E  E  E
|-------------------------|-------------------|
|-------------------------|-------------------|
|-------------------------|-------------------|
|-12-12-12-12-12-12-12-12-|-12-12-12-12-12-12-|
|--x--x--x--x--x--x--x--x-|--x--x--x--x--x--x-|
|-10-10-10-10-10-10-10-10-|-10-10-10-10-10-10-|


  D/C
 4/4                       3/4
   E  E  E  E  E  E  E  E    E  E  E  E  E  E
|-------------------------|-------------------|
|-------------------------|-------------------|
|-------------12-11-------|-------12-11-------|
|--0-12-10--0--------0-12-|-10--0-------------|
|-------------------------|-------------12-10-|
|-------------------------|-------------------|
|
|  E  E  E  E  E  E  E  E    E  E  E  E  E  E
|-------------------------|-------------------|
|-------------------------|-------------------|
|-------------------------|-------------------|
|-10-10-10-10-10-10-10-10-|-10-10-10-10-10-10-|
|--x--x--x--x--x--x--x--x-|--x--x--x--x--x--x-|
|--8--8--8--8--8--8--8--8-|--8--8--8--8--8--8-|


  Bm7
 4/4                    3/4
  E  E  E E  E  E E  E    E E  E  E  E  E
|----------------------|------------------|
|----------------------|------------------|
|-----------12-11------|------12-11-------|
|-0-12-10-0-------0-12-|-10-0-------------|
|----------------------|------------12-10-|
|----------------------|------------------|
|
| E  E  E E  E  E E  E    E E  E  E  E  E
|----------------------|------------------|
|----------------------|------------------|
|----------------------|------------------|
|-9--9--9-9--9--9-9--9-|--9-9--9--9--9--7-|
|-x--x--x-x--x--x-x--x-|--x-x--x--x--x--x-|
|-7--7--7-7--7--7-7--7-|--7-7--7--7--7--5-|


  D/F#
 4/4                    3/4
  E  E  E E  E  E E  E    E E  E  E  E  E
|----------------------|-------------------|
|----------------------|-------------------|
|-----------12-11------|------12-11--------|
|-0-12-10-0-------0-12-|-10-0--------------|
|----------------------|------------12-10--|
|----------------------|-------------------|
|
| E  E  E E  E  E E  E    E E  E  E  E  E
|----------------------|-------------------|
|----------------------|-------------------|
|----------------------|-------------------|
|-4--4--4-4--4--4-4--4-|--4-4--4--4--4--4--|
|-x--x--x-x--x--x-x--x-|--x-x--x--x--x--x--|
|-2--2--2-2--2--2-2--2-|--2-2--2--2--2--2--|


  D/C
 4/4                       3/4
   E  E  E  E  E  E  E  E    E  E  E  E  E  E
|-------------------------|-------------------|
|-------------------------|-------------------|
|-------------12-11-------|-------12-11-------|
|--0-12-10--0--------0-12-|-10--0-------------|
|-------------------------|-------------12-10-|
|-------------------------|-------------------|
|
|  E  E  E  E  E  E  E  E    E  E  E  E  E  E
|-------------------------|-------------------|
|-------------------------|-------------------|
|-------------------------|-------------------|
|-10-10-10-10-10-10-10-10-|-10-10-10-10-10-10-|
|--x--x--x--x--x--x--x--x-|--x--x--x--x--x--x-|
|--8--8--8--8--8--8--8--8-|--8--8--8--8--8--8-|


  Bm7
 4/4                    3/4
  E  E  E E  E  E E  E    E E  E  E  E  E
|----------------------|-------------------|
|----------------------|-------------------|
|-----------12-11------|------12-11--------|
|-0-12-10-0-------0-12-|-10-0--------------|
|----------------------|------------12-10--|
|----------------------|-------------------|
|
| E  E  E E  E  E E  E    E E  E  E  E  E
|----------------------|-------------------|
|----------------------|-------------------|
|----------------------|-------------------|
|-9--9--9-9--9--9-9--9-|--9-9--9--9--9--7--|
|-x--x--x-x--x--x-x--x-|--x-x--x--x--x--x--|
|-7--7--7-7--7--7-7--7-|--7-7--7--7--7--5--|


  D/F#                                      D/C
 4/4                    3/4                4/4
  E  E  E E  E  E E  E    E E  E  E  E  E    E  E  E  E  E  E  E  E
|----------------------|------------------|-------------------------|
|----------------------|------------------|-------------------------|
|-----------12-11------|------12-11-------|-------------12-11-------|
|-0-12-10-0-------0-12-|-10-0-------------|--0-12-10--0--------0-12-|
|----------------------|------------12-10-|-------------------------|
|----------------------|------------------|-------------------------|
|
| E  E  E E  E  E E  E    E E  E  E  E  E    E  E  E  E  E  E  E  E
|----------------------|------------------|-------------------------|
|----------------------|------------------|-------------------------|
|----------------------|------------------|-------------------------|
|-4--4--4-4--4--4-4--4-|--4-4--4--4--4--4-|-10-10-10-10-10-10-10-10-|
|-x--x--x-x--x--x-x--x-|--x-x--x--x--x--x-|--x--x--x--x--x--x--x--x-|
|-2--2--2-2--2--2-2--2-|--2-2--2--2--2--2-|--8--8--8--8--8--8--8--8-|


                      Bm7
 3/4                 4/4
   E  E  E  E  E  E   E  E  E E  E  E E  E    E E  E  E  E  E  Q
|-------------------|----------------------|------------------------|
|-------------------|----------------------|------------------------|
|-------12-11-------|-----------12-11------|------12-11-------------|
|-10--0-------------|-0-12-10-0-------0-12-|-10-0-------------------|
|-------------12-10-|----------------------|------------12-10-12\---|
|-------------------|----------------------|------------------------|
|
|  E  E  E  E  E  E   E  E  E E  E  E E  E    E E  E  E  E  E  E  E
|-------------------|----------------------|------------------------|
|-------------------|----------------------|------------------------|
|-------------------|----------------------|------------------------|
|-10-10-10-10-10-10-|-9--9--9-9--9--9-9--9-|--9-9--9--9--9--9--9--9-|
|--x--x--x--x--x--x-|-x--x--x-x--x--x-x--x-|--x-x--x--x--x--x--x--x-|
|--8--8--8--8--8--8-|-7--7--7-7--7--7-7--7-|--7-7--7--7--7--7--7--7-|


  D7
  Gtrs II, III
  E E E E Q  E E   E E Q  E E E E   E E E E Q  E E   E E Q  E E E E
|-5-5-5-5-5--5-5-|-5-5-5--5-5-5---|-5-5-5-5-5--5-5-|-5-5-5--5-5-5---||
|-3-3-3-3-3--3-3-|-3-3-3--3-3-3---|-3-3-3-3-3--3-3-|-3-3-3--3-3-3---||
|-5-5-5-5-5--5-5-|-5-5-5--5-5-5---|-5-5-5-5-5--5-5-|-5-5-5--5-5-5---||
|-0-0-0-0-0--0-0-|-0-0-0--0-0-0---|-0-0-0-0-0--0-0-|-0-0-0--0-0-0---||
|-0-5-5-0-5--0-5-|-5-0-5--0-5-5---|-0-5-5-0-5--0-5-|-5-0-5--0-5-5---||
|----------------|----------------|----------------|----------------||


   Verse
    $
    D
    Gtr I
    E E E E +E  E E E   +E  E E E +E  E Q
||--------0-(0)-----2-|-(2)-----0-(0)-------|
||o-----3-------3-----|-----3---------3-----|
||----2-----------2---|-------2---------2---|
||--0-----------------|---------------------|
||o-------------------|---------------------|
||--------------------|---------------------|
|
|   Gtr III
|   E E E E  E  E E E    E  E E E  E  E E E
||--------------------|---------------------|
||o-------------------|---------------------|
||--------------------|---------------------|
||--7-7-7-7--7--7-7-7-|--7--7-7-7--7--7-7-7-|
||o-5-5-5-5--5--5-5-5-|--5--5-5-5--5--5-5-5-|
||--------------------|---------------------|


  Am
  E E E E +E  E E E   +E  E E E +E  E Q
|-------3-(3)-----0-|-(0)-----3-(3)--------|
|-------------1-----|-----1---------1------|
|-----2---------2---|-------2--------------|
|---2---------------|----------------------|
|-0-----------------|-----------------2----|
|-------------------|----------------------|
|
| E E E E  E  E E E    E  E E E  E  E E E
|-------------------|----------------------|
|-------------------|----------------------|
|-------------------|----------------------|
|-------------------|-----------------4-4--|
|-7-7-7-7--7--7-7-7-|--7--7-7-7--7--7-2-2--|
|-5-5-5-5--5--5-5-5-|--5--5-5-5--5--5------|


                                          1.
  C                   Em7                 D7
                                          Gtr II
  E E E E +E  E E E   E E E E +E  E E E   E E E E Q  E E   E E Q  E E E E
|-------0-(0)-------|-------0-(0)-------|-5-5-5-5-5--5-5-|-5-5-5--5-5-5----||
|-------1-(1)-------|-------3-(3)-------|-3-3-3-3-3--3-3-|-3-3-3--3-3-3---o||
|-----0-------0-----|-------------0-----|-5-5-5-5-5--5-5-|-5-5-5--5-5-5----||
|---2-----------2---|-----2---------2---|-0-0-0-0-0--0-0-|-0-0-0--0-0-0----||
|-3---------------3-|---2-------------2-|-0-5-5-0-5--0-5-|-5-0-5--0-5-5---o||
|-------------------|-0-----------------|----------------|-----------------||
|
| E E E E  E  E E E   E E E E  E  E E E   E E E E Q  E E   E E Q  E E E E
|-------------------|-------------------|-5-5-5-5-5--5-5-|-5-5-5--5-5-5----||
|-------------------|-------------------|-3-3-3-3-3--3-3-|-3-3-3--3-3-3---o||
|-------------------|-------------------|-5-5-5-5-5--5-5-|-5-5-5--5-5-5----||
|-5-5-5-5--5--5-5-5-|-------------------|-0-0-0-0-0--0-0-|-0-0-0--0-0-0----||
|-3-3-3-3--3--3-3-3-|-2-2-2-2--2--2-2-2-|-0-5-5-0-5--0-5-|-5-0-5--0-5-5---o||
|-------------------|-0-0-0-0--0--0-0-0-|----------------|-----------------||


  2.
  D7
  Gtrs II, III
  E E E E Q  E E   E E Q  E E E E   E E E E Q  E E   E E Q  E E E E
|-5-5-5-5-5--5-5-|-5-5-5--5-5-5---|-5-5-5-5-5--5-5-|-5-5-5--5-5-5---||
|-3-3-3-3-3--3-3-|-3-3-3--3-3-3---|-3-3-3-3-3--3-3-|-3-3-3--3-3-3---||
|-5-5-5-5-5--5-5-|-5-5-5--5-5-5---|-5-5-5-5-5--5-5-|-5-5-5--5-5-5---||
|-0-0-0-0-0--0-0-|-0-0-0--0-0-0---|-0-0-0-0-0--0-0-|-0-0-0--0-0-0---||
|-0-5-5-0-5--0-5-|-5-0-5--0-5-5---|-0-5-5-0-5--0-5-|-5-0-5--0-5-5---||
|----------------|----------------|----------------|----------------||


   Chorus
    C                   Em7                 Dadd4
    Gtr III
    Q   E E +E  E E E   Q   E E +E  E E E   Q   E E +E  E  E  E
    |   | |  |  | | |   |   | |  |  | | |   |   | |  |  |  |  |
    /   / /  /  / / /   /   / /  /  / / /   /   / /  /  /  /  /

    Gtr II
    Q.    E +Q    Q     Q.    E +Q    Q     E E E E +E  E +Q     3x
||--------------------|-------------------|----------------------||
||o-------------------|-------------------|---------------------o||
||--0-----0-(0)---0---|-0-----0-(0)---0---|---0------------------||
||--2-----------------|-2-----------------|-4---4-------4-(4)----||
||o-3-----------------|-2-----------------|-5-----5-(5)---------o||
||--------------------|-0-----------------|----------------------||


                                 To Coda
  C                   Em7                  D7
  Q   E E +E  E E E   Q   E E +E  E E E    W
  |   | |  |  | | |   |   | |  |  | | |
  /   / /  /  / / /   /   / /  /  / / /

                                           Gtrs II, III
  Q.    E +Q    Q     Q.    E +Q    Q      E E E E Q  E E
|-------------------|--------------------|-5-5-5-5-5--5-5-|
|-------------------|--------------------|-3-3-3-3-3--3-3-|
|-0-----0-(0)---0---|-0-----0-(0)---0----|-5-5-5-5-5--5-5-|
|-2-----------------|-2------------------|-0-0-0-0-0--0-0-|
|-3-----------------|-2------------------|-0-5-5-0-5--0-5-|
|-------------------|-0------------------|----------------|


                                       D.S. al Coda
  E E Q  E E E E   E E E E Q  E E   E E Q  E E E E
|-5-5-5--5-5-5---|-5-5-5-5-5--5-5-|-5-5-5--5-5-5----||
|-3-3-3--3-3-3---|-3-3-3-3-3--3-3-|-3-3-3--3-3-3----||
|-5-5-5--5-5-5---|-5-5-5-5-5--5-5-|-5-5-5--5-5-5----||
|-0-0-0--0-0-0---|-0-0-0-0-0--0-0-|-0-0-0--0-0-0----||
|-5-0-5--0-5-5---|-0-5-5-0-5--0-5-|-5-0-5--0-5-5----||
|----------------|----------------|-----------------||


   Interlude
    &
    D                                             D/C
                             3/4                 4/4
    Gtr II
     E  E  E  E  E  E  E  E    E  E  E  E  E  E    E  E  E  E  E  E  E  E
||--------------------------|-------------------|-------------------------|
||o-------------------------|-------------------|-------------------------|
||--------------12-11-------|-------12-11-------|-------------12-11-------|
||---0-12-10--0--------0-12-|-10--0-------------|--0-12-10--0--------0-12-|
||o-------------------------|-------------12-10-|-------------------------|
||--------------------------|-------------------|-------------------------|
|
|   Gtr III
|    E  E  E  E  E  E  E  E    E  E  E  E  E  E    E  E  E  E  E  E  E  E
||--------------------------|-------------------|-------------------------|
||o-------------------------|-------------------|-------------------------|
||--------------------------|-------------------|-------------------------|
||--12-12-12-12-12-12-12-12-|-12-12-12-12-12-12-|-10-10-10-10-10-10-10-10-|
||o--x--x--x--x--x--x--x--x-|--x--x--x--x--x--x-|--x--x--x--x--x--x--x--x-|
||--10-10-10-10-10-10-10-10-|-10-10-10-10-10-10-|--8--8--8--8--8--8--8--8-|


                       Bm7
 3/4                  4/4
   E   E  E  E  E  E   E  E  E E  E  E E  E
|--------------------|----------------------|
|--------------------|----------------------|
|--------12-11-------|-----------12-11------|
|-10---0-------------|-0-12-10-0-------0-12-|
|--------------12-10-|----------------------|
|--------------------|----------------------|
|
|  E   E  E  E  E  E   E  E  E E  E  E E  E
|--------------------|----------------------|
|--------------------|----------------------|
|--------------------|----------------------|
|-10--10-10-10-10-10-|-9--9--9-9--9--9-9--9-|
|--x---x--x--x--x--x-|-x--x--x-x--x--x-x--x-|
|--8---8--8--8--8--8-|-7--7--7-7--7--7-7--7-|
|
| Gtr IV
|  H.                  W
|--------------------|----------------------|
|--------------------|----------------------|
|--------------------|----------------------|
|--------------------|----------------------|
|--------------------|----------------------|
|--------------------|----------------------|


  1.,2.,3.              4.
 3/4
   E  E  E  E  E  E      E E  E  E  E  E
|--------------------||--------------------||
|-------------------o||--------------------||
|-------12-11--------||------12-11---------||
|-10--0--------------||-10-0---------------||
|-------------12-10-o||------------12-10---||
|--------------------||--------------------||
|
|  E  E  E  E  E  E      E E  E  E  E  E
|--------------------||--------------------||
|-------------------o||--------------------||
|--------------------||--------------------||
|--9--9--9--9--9--7--||--9-9--9--9--9--7---||
|--x--x--x--x--x--x-o||--x-x--x--x--x--x---||
|--7--7--7--7--7--5--||--7-7--7--7--7--5---||
|
|  H.                    H          E  E
|--------------------||--------------------||
|-------------------o||--------------------||
|--------------------||--------------------||
|--------------------||--------------------||
|-------------------o||--------------------||
|--------------------||-------------3s15\--||


    D7
   4/4
    Gtrs II, III
    E  E  E E  Q    E  E    E E  Q     E  E  E  E
||--5--5--5-5--5----5--5-|--5-5--5-----5--5--5----|
||o-3--3--3-3--3----3--3-|--3-3--3-----3--3--3----|
||--5--5--5-5--5----5--5-|--5-5--5-----5--5--5----|
||--0--0--0-0--0----0--0-|--0-0--0-----0--0--0----|
||o-0--5--5-0--5----0--5-|--5-0--5-----0--5--5----|
||-----------------------|------------------------|
|
|   Gtr IV
|   E  E  E E  E  E E  E    E E  E  E  E  E  Q
||-----------------------|------------------------|
||o----------------------|------------------------|
||------------12-11------|------12-11-------------|
||--0-12-10-0-------0-12-|-10-0-------------------|
||o----------------------|------------12-10-12\---|
||-----------------------|------------------------|


  E  E  E E  Q    E  E    E E  Q     E  E  E  E
|-5--5--5-5--5----5--5-|--5-5--5-----5--5--5------||
|-3--3--3-3--3----3--3-|--3-3--3-----3--3--3-----o||
|-5--5--5-5--5----5--5-|--5-5--5-----5--5--5------||
|-0--0--0-0--0----0--0-|--0-0--0-----0--0--0------||
|-0--5--5-0--5----0--5-|--5-0--5-----0--5--5-----o||
|----------------------|--------------------------||
|
| E  E  E E  E  E E  E    E E  E  E  E  E  Q
|----------------------|--------------------------||
|----------------------|-------------------------o||
|-----------12-11------|------12-11---------------||
|-0-12-10-0-------0-12-|-10-0---------------------||
|----------------------|------------12-10-12\----o||
|----------------------|--------------------------||


   Chorus
    C                   Em7                 Dadd4
    Gtr II
    Q   E E +E  E E E   Q   E E +E  E E E   Q   E E +E  E  E  E
    |   | |  |  | | |   |   | |  |  | | |   |   | |  |  |  |  |
    /   / /  /  / / /   /   / /  /  / / /   /   / /  /  /  /  /

    Gtr III
    Q.    E +Q    Q     Q.    E +Q    Q     E E E E +E  E +Q     8x
||--------------------|-------------------|----------------------||
||o-------------------|-------------------|---------------------o||
||--0-----0-(0)---0---|-0-----0-(0)---0---|---0------------------||
||--2-----------------|-2-----------------|-4---4-------4-(4)----||
||o-3-----------------|-2-----------------|-5-----5-(5)---------o||
||--------------------|-0-----------------|----------------------||


 Outro
  C                   Em7                      Dadd4
  Gtr I
   Q  E E +E  E E E     Q   E E +E  E   E  E    Q  E E +E  E E E
|-------3-(3)-------|---------0-(0)----------|-------5-(5)-------|
|-----1-1-(1)-1-1---|-------3-3-(3)-3---3----|-----3-3-(3)-3-3---|
|--0--0-0-(0)-0-0-0-|---0---0-0-(0)-0---0--0-|--0--0-0-(0)-0-0-0-|
|--2--2-------2-2-2-|---2---2-------2---2--2-|--4--4-------4-4-4-|
|--3--3-------3-3-3-|---2---2-------2---2--2-|--5--5-------5-5-5-|
|-------------------|---0---0-------0---0--0-|-------------------|
|
| Gtrs II, III
|  W                   +H.             +Q       W
|-------------------|------------------------|-------------------|
|-------------------|------------------------|-------------------|
|-12----------------|-(12)------------(12)s==|=11----------------|
|--x----------------|--(x)-------------(x)---|--x----------------|
|-10----------------|-(10)------------(10)s==|==9----------------|
|-------------------|------------------------|-------------------|


    C                  Em7                Dadd4
    Q  E E +E  E E E   Q  E E +E  E E E   Q  E E +E  E E E  3x
||-------3-(3)-------|------0-(0)-------|------5-(5)--------||
||o----1-1-(1)-1-1---|----3-3-(3)-3-3---|----3-3-(3)-3-3---o||
||--0--0-0-(0)-0-0-0-|-0--0-0-(0)-0-0-0-|-0--0-0-(0)-0-0-0--||
||--2--2-------2-2-2-|-2--2-------2-2-2-|-4--4-------4-4-4--||
||o-3--3-------3-3-3-|-2--2-------2-2-2-|-5--5-------5-5-5-o||
||-------------------|-0--0-------0-0-0-|-------------------||


  C
  W          +W
|----------|--------*|
|----------|--------*|
|-0--------|-(0)----*|
|-2--------|-(2)----*|
|-3--------|-(3)----*|
|----------|--------*|


--------------------
DISENCHANTED LULLABY
--------------------

tabbed by idontknow

Intro/verse :  Kind of weird timing
e|------------2-------------------2-----------------
b|----------0---0---------------0----0--------------
g|-------2--------2-----------2--------2------------
d|--------------------------------------------------
a|--0-2------------------0-2------------------------
E|--------------------------------------------------
    ohhhhhhhhhh ahhhhhhhhh........

Fill 1 : only just audable
e|----2-2-------2-2-------2-2-----------2-2---------
b|--------------------------------------------------
g|--------------------------------------------------
d|--------------------------------------------------
a|--------------------------------------------------
E|--------------------------------------------------

Fill 2 : mute this part
e|--------------------------------------------------
b|--------------------------------------------------
g|--------------------------------------------------
d|--9-7-9-7------9-7-9-7----------------------------
a|--------------------------7/5-0-------------------
E|--------------------------------------------------

VERSE : (Also used in intro riff)
e|-----------2--------------------2-----------------
b|--------0-----0--------------0----0---------------
g|-----2-----------2--------2----------2------------
d|---2-------------------0--------------------------
a|--------------------------------------------------
E|--------------------------------------------------

Fill 1:
e|--------------------------------------------------
b|--------------------------------------------------
g|--------------------------------------------------
d|--------------------------------------------------
a|---5/7------9-------------------------------------
E|--------------------------------------------------

CHORUS : Distortion on
e|-----------2--2--2-2----2-2-2-2-------------------
b|-----------0--0--0-0----0-0-0-0-------------------
g|-----------2--2--2-2----2-2-2-2-----repeat--------
d|-----------x--x--x-x----x-x-x-x------a--few-------
a|--0-1-1-2--2--2--2-2----2-2-2-2--------times------
E|--------------------------------------------------

               E              D 
e|-----------------------2--2--2--2-----------------
b|-----------------------3--3--3--3-----------------
g|---------1--1--1--1----2--2--2--2-----------------
d|---------2--2--2--2----0--0--0--0-----------------
a|--0-1-1--2--2--2--2-------------------------------
E|---------0--0--0--0-------------------------------
   no one has a fit like I do...

INTERLUDE :
e|--------------------------------------------------
b|--------------------------------------------------
g|---------------7-------------------7--------------
d|--9-9-9----2---7-------9-9-9----7--7--------------
a|--9-9-9----2---5-------9-9-9----7--5--------------
E|--7-7-7----0------5-6--7-7-7----5-----5-6-and-repeat
   ohhhhhhhhhhhh ohhhhhhhhhhhhh...

Fill :
e|---2-2-2-2-2-2-2-2-etc----4-4-4-4-4-4-4-4-|-2-ring-
b|------------------------------------------|--------
g|------------------------------------------|--------
d|------------------------------------------|--------
a|------------------------------------------|--------
E|------------------------------------------|--------


------------
TIRED OF YOU
------------

tabbed by andrewbiles

it's in Drop D tuning.
from what I remember the whole song is palm muted so I'm not gonna indicate that underneath.

|---------------------------------------------------------------
|---------------------------------------------------------------
|---------------------------------------------------------------
|-----5-------5-------5-------5-------5-------5-------5-------5-
|-5-5-5-5-5-5-5-5-5-5-5-5-5-5-5-5-5-5-5-5-5-5-5-5-5-5-5-5-5-5-5-
|-5-5-5-5-5-5-5-5-5-5-5-5-5-5-5-5-5-5-5-5-5-5-5-5-5-5-5-5-5-5-5- x2

|-------------------------------
|-------------------------------
|-------------------------------
|-----3-------3-------3-------3-
|-3-3-3-3-3-3-3-3-3-3-3-3-3-3-3-
|-3-3-3-3-3-3-3-3-3-3-3-3-3-3-3-

|-----------------------------
|-----------------------------
|-----------------------------
|-----1-------1-----0-------0-
|-1-1-1-1-1-1-1-0-0-0-0-0-0-0-
|-1-1-1-1-1-1-1-0-0-0-0-0-0-0-

|---------------------------------------------------------------
|---------------------------------------------------------------
|---------------------------------------------------------------
|-----5-------5-------5-------5-------5-------5-------5-------5-
|-5-5-5-5-5-5-5-5-5-5-5-5-5-5-5-5-5-5-5-5-5-5-5-5-5-5-5-5-5-5-5-
|-5-5-5-5-5-5-5-5-5-5-5-5-5-5-5-5-5-5-5-5-5-5-5-5-5-5-5-5-5-5-5-

|-------------------------------
|-------------------------------
|-------------------------------
|-----3-------3-------3-------3-
|-3-3-3-3-3-3-3-3-3-3-3-3-3-3-3-
|-3-3-3-3-3-3-3-3-3-3-3-3-3-3-3-

|-----------------------------
|-----------------------------
|-----------------------------
|-----1-------1-----0-------0-
|-1-1-1-1-1-1-1-0-0-0-0-0-0-0-
|-1-1-1-1-1-1-1-0-0-0-0-0-0-0-

|-------------------------------
|-------------------------------
|-------------------------------
|-----5-------5-------5-------5-
|-5-5-5-5-5-5-5-5-5-5-5-5-5-5-5-
|-5-5-5-5-5-5-5-5-5-5-5-5-5-5-5-

|------------------------------------
|------------------------------------
|------------------------------------
|-------10----------10-----5-------5-
|-10-10-10-10-10-10-10-5-5-5-5-5-5-5-
|-10-10-10-10-10-10-10-5-5-5-5-5-5-5- x2

|-----------------------------------------------------------
|-----------------------------------------------------------
|-----------------------------------------------------------
|-----3-------3-----1-------1-----0-------0-------0-------0-
|-3-3-3-3-3-3-3-1-1-1-1-1-1-1-0-0-0-0-0-0-0-0-0-0-0-0-0-0-0-
|-3-3-3-3-3-3-3-1-1-1-1-1-1-1-0-0-0-0-0-0-0-0-0-0-0-0-0-0-0-


----
HALO
----


tabbed by timi ferguson.
intro/verse pt 1
  Em7  D7m G
e--------------------|
B-33333-33-3-333-333-|
G-00000-xx-0-000-000-|
D-22222-00-0-000-000-|
A-xxxxx-xx-x-xxx-xxx-|
E----------3-333-333-|
verse pt 2
  F                 Am
e-------------------------------------|
B-1-11-111-1-11-111-1-11-111-1-11-111-|
G-2-22-222-2-22-222-2-22-222-2-22-222-|
D-3-33-333-3-33-333-2-22-222-2-22-222-|
A-------------------0-00-000-0-00-000-|
E-------------------------------------|
verse order-verse pt1x2
            verse pt2
            verse pt1x2
            verse pt2
pre chorus
  A#/Bb    G        A#/Bb    G        A#/Bb    G        C
e----------3-33-333----------3-33-333----------3-33-333-------------------|
B----------3-33-333----------3-33-333----------3-33-333-1-11-111-1-11-111-|
G-3-33-333-0-00-000-3-33-333-0-00-000-3-33-333-0-00-000-0-00-000-0-00-000-|
D-3-33-333-0-00-000-3-33-333-0-00-000-3-33-333-0-00-000-2-22-222-2-22-222-|
A-1-11-111-2-22-222-1-11-111-2-22-222-1-11-111-2-22-222-3-33-333-3-33-333-|
E----------3-33-333----------3-33-333----------3-33-333-------------------|
chorus
  G        F#/D     F        C        D#/Eb    D        C         D
e-3-33-333-------------------------------------2-22-222----------x222222-|
B-3-33-333-3-33-333-1-11-111-1-11-111----------3-33-333-1-11-111-x333333-|
G-0-00-000-2-22-222-2-22-222-0-00-000-8-88-888-2-22-222-0-00-000-x222222-|x2
D-0-00-000-0-00-000-3-33-333-2-22-222-8-88-888-0-00-000-2-22-222-x000000-|
A-2-22-222-x-xx-xxx----------3-33-333-6-66-666----------3-33-333---------|
E-3-33-333-2-22-222------------------------------------------------------|
bridge pt1
  D#/Eb    D        C        D        D#/Eb    F
e-------------------------------------------------------------|
B-------------------------------------------------------------|
G-8-88-888-7-77-777-5-55-555-7-77-777-8-88-888-10-1010-101010-|
D-8-88-888-7-77-777-5-55-555-7-77-777-8-88-888-10-1010-101010-|
A-6-66-666-5-55-555-3-33-333-5-55-555-6-66-666--8--8-8--8-8-8-|
E-------------------------------------------------------------|
bridge pt2
  D#/Eb    D        D#/Eb    F
e-------------------------------------------|
B-------------------------------------------|
G-8-88-888-7-77-777-8-88-888-10-1010-101010-|
D-8-88-888-7-77-777-8-88-888-10-1010-101010-|x2
A-6-66-666-5-55-555-6-66-666--8--8-8--8-8-8-|
E-------------------------------------------|
solo(chorus chords rhythm)
  G         F#/D     F        C       D#/Eb    D          C          D
e---------------------------------------------------------------------------|
B-12--------8--------------------------------8-101010-8-7-----7-8-10-7-8-10-|
G--------------------7--------9997----888-10--------------999---------------|
D----------------------------------10---------------------------------------|
A---------------------------------------------------------------------------|
E---------------------------------------------------------------------------|
  G        F#/D     F           C       D#/Eb    D          C
e--------7-------------------------------------------------------------|
B-888-10---777-8-10--------8-10----------------8-101010-8-7-----7-8-10-|
G-------------------101010------9997----888-10--------------999--------|
D------------------------------------10--------------------------------|
A----------------------------------------------------------------------|
E----------------------------------------------------------------------|
  D
e-14-15-17-|
B----------|
G----------|
D----------|
A----------|
E----------|
outro
play bridge pt1x1
introx3
end on
e-------------|
B-33333-33-3--|
G-00000-xx-0--|
D-22222-00-0--|
A----------x--|
E----------3--|


-------------
LONELY AS YOU
-------------

tabbed by tom kelly (tuhu27@hotmail.com)

Note: Every dash = 8th note 

3/3 time 
Intro 
e|--------------------------------------------------| 
B|-------2-----------------------------4-----3------| 
G|-3-----3-----1-3-4---------1-3-3-----4-----4------| 
D|-4-----3-----2-----4-----4-----4-----4-----4------| 
A|-4-----1-----2-----1-----0-----4-----2-----2------| 
D|-4-----------2-----1-----0-----4------------------| 
  

4/4 time 
Verse 

Part A 
e|------------------------------------------------------------------| 
B|------------------------------------------------------------------| 
G|------------------------------------------------------------------| 
D|---------33333333-------------------------------------------------| 
A|-4444444411111111222222221111111100000022444444446666666655555555-| 
D|-44444444--------222222221111111100000022444444446666666655555555-| 
   p.m. throughout 

Part B 
e|------------------------------------------------------------------| 
B|------------------------------------------------------------------| 
G|---------------------------------------------------------------44-| 
D|---------33333333--------------------------------4444444444444444-| 
A|-4444444411111111222222221111111100000022444444442222222222222222-| 
D|-44444444--------22222222111111110000002244444444-----------------| 
   p.m. --->           ---/ 

Part C 
e|--------------------------------------------------| 
B|--------------------------------------------------| 
G|--------------------------------------------------| 
D|---------33333333----------------000002-4-xxx4----| 
A|-44444444111111112222222211111111000002-4-xxx4----| 
D|-44444444--------2222222211111111000002-4-xxx4----| 
   p.m. --->         ---/ 

Part D 
e|------------------| 
B|------------------| 
G|------------------| 
D|-000002-4-xxx4----| 
A|-000002-4-xxx4----| 
D|-000002-4-xxx4----| 
  

Pre-Chorus 

Guitar 1 
e|---------------------------------| 
B|---------------------------------| 
G|---------------------------------| 
D|-9-9-9-9-7-7-7-7-6-6-6-6-5-5-5-5-| 
A|-9-9-9-9-7-7-7-7-6-6-6-6-5-3-3-3-| 
D|-9-9-9-9-7-7-7-7-6-6-6-6-5-5-5-5-| 

Guitar 2 
e|-------/\------/\------/\--------| 
B|-4-----74------74------74--------| 
G|---------6-------5-------4-------| 
D|---------------------------------| 
A|---------------------------------| 
D|---------------------------------| 
   /\ = slide 

Chorus 
e|----------------------------------| 
B|----------------------------------| 
G|--------------------222---444-----| 
D|-4443332221110---0002222224444----| 
A|-4443332221110---0000002222224----| 
D|-4443332221110---000---222---4----| 
  

Alternate Verse 
e|--------------------------------------------------| 
B|--------------------------------------------------| 
G|---------3-3-3-3----------------------------------| 
D|-4-4-4-4-3-3-3-3-2-2-2-2-1-1-1-1-000002-4-xxx4----| 
A|-4-4-4-4-1-1-1-1-2-2-2-2-1-1-1-1-000002-4-xxx4----| 
D|-4-4-4-4---------2-2-2-2-1-1-1-1-000002-4-xxx4----| 
  

Solo 

Guitar 1 
e|------------------------------------------------------------------| 
B|------------------------------------------------------------------| 
G|-11------10------9-------8-------7----9--6-------8-------7----9---| 
D|------------------------------------------------------------------| 
A|--9-------8------7-------6-------5----7--4-------6-------5----7---| 
D|------------------------------------------------------------------| 

e|------------------------------------------------------------------| 
B|------------------------------------------------------------------| 
G|-11------10------9-------8-------7----9--6-------8-------7--------| 
D|------------------------------------------------------------------| 
A|--9-------8------7-------6-------5----7--4-------6-------5--------| 
D|------------------------------------------------------------------| 
  

Outro 
e|------------------------------------------------------------(8)----| 
B|-7-----7-----7-----7-----7-------7-----7-----7----5---[8]---(10>12)|       
G|-9>11--9>11--9>11--9>11--9>11----9>11--9>11--9>11-7>9-[10>12]------|X2    
D|-------------------------------------------------------------------|    
A|-------------------------------------------------------------------|   
D|-------------------------------------------------------------------| 
first time thru play [] and not (), second time play () instead of []. 




e|-6------6----6-----6-----6------5-----5-----5-----4----7-----[6]---|    
B|-9>11--9>11--9>11--9>11--9>11---8>10--8>10--8>10--7>9--10>12-[9>11]|    
G|-------------------------------------------------------------------|X2 
D|-------------------------------------------------------------------| 
A|-------------------------------------------------------------------| 
D|-------------------------------------------------------------------| 
  don't play [] notes first time thru, just second time to finish. 


---------
OVERDRIVE
---------

Tabbed by: Adam Pollard
Email: adampolly@fsmail.net

Tuning: Standard

Intro
Guitar 1
e|----------------------------------------------------------------|
B|----------------------------------------------------------------|
G|---7------------------------------------------------------------|
D|---7------------------------------------7-----------------------|
A|---5------------------------------------7-----------------------|
E|----------------------------------------5-----------------------|

Guitar 2
e|----------------------------------------------------------------|
B|----------------------------------------------------------------|
G|---11---9---7---------------7-------7---9-----------------------|
D|---x----x---x---9---7---9---x---9---x---x-----------------------|
A|---9----7---5---x---x---x---5---x---5---7-----------------------|
E|----------------7---5---7-------7-------------------------------|

Guitar 1
e|----------------------------------------------------------------|
B|----------------------------------------------------------------|
G|---7------------------------------------------------------------|
D|---7------------------------------------7-----------------------|
A|---5------------------------------------7-----------------------|
E|----------------------------------------5-----------------------|

Guitar 2
e|----------------------------------------------------------------|
B|----------------------------------------------------------------|
G|---11---9---7---------------7-----------------------------------|
D|---x----x---x---9---7---9---x---9------7------------------------|
A|---9----7---5---x---x---x---5---x------x------------------------|
E|----------------7---5---7-------7------5------------------------|

Guitar 1
e|----------------------------------------------------------------|
B|----------------------------------------------------------------|
G|---7------------------------------------------------------------|
D|---7------------------------------------7-----------------------|
A|---5------------------------------------7-----------------------|
E|----------------------------------------5-----------------------|

Guitar 2
e|----------------------------------------------------------------|
B|----------------------------------------------------------------|
G|---11---9---7---------------7-------7---9-------------------11--|
D|---x----x---x---9---7---9---x---9---x---x-------------------x---|
A|---9----7---5---x---x---x---5---x---5---7-------------------9---|
E|----------------7---5---7-------7-------------------------------|

e|----------------------------------------------------------------|
B|----------------------------------------------------------------|
G|------------------------7---------------------------------------|
D|---5--------------------7----------------------------------------|
A|---5--------------------5----------------------------------------|
E|---3-------------------------------------------------------------|

e|-----------------------------------------------------------------|
B|-----------------------------------------------------------------|
G|---7------9------11----------------------------------------------|
D|---x------x------x------7------4---------------------------------|
A|---5------7------9------x------x---------------------------------|
E|------------------------5------2---------------------------------|

=====================================================================
Verse 
Guitar 1
e|------------------------------------------------------------------|
B|------------------------------------------------------------------|
G|---7--------------------------------------------------------------|
D|---7-------------------7------------------------------------------|
A|---5-------------------7------------------------------------------|
E|-----------------------5------------------------------------------|

Guitar 2
e|---2-------------------0------3-----------0-----------3-----------|
B|---3-------------------1----------1-----------1-----------1-------|
G|---2-------------------2--------------2-----------2-----------2---|
D|---0-------------------2------------------------------------------|
A|-----------------------0------------------------------------------|
E|------------------------------------------------------------------|

Guitar 1
e|------------------------------------------------------------------|
B|------------------------------------------------------------------|
G|---7--------------------------------------------------------------|
D|---7-------------------7------------------------------------------|
A|---5-------------------7------------------------------------------|
E|-----------------------5------------------------------------------|

Guitar 2
e|---2-------------------0------3-----------0-----------3-----------|
B|---3-------------------1----------1-----------1-----------1-------|
G|---2-------------------2--------------2-----------2-----------2---|
D|---0-------------------2------------------------------------------|
A|-----------------------0------------------------------------------|
E|------------------------------------------------------------------|

Guitar 1
e|------------------------------------------------------------------|
B|------------------------------------------------------------------|
G|-----------------------7------------------------------------------|
D|---5-------------------7------------------------------------------|
A|---5-------------------5------------------------------------------|
E|---3--------------------------------------------------------------|

Guitar 2
e|---3-------------------3------------0---2-------------------------|
B|---3-------------------2--------------------3---------------------|
G|---0-------------------3------------------------2-----------------|
D|---0-------------------0------------------------------------------|
A|---2--------------------------------------------------------------|
E|---3--------------------------------------------------------------|

Guitar 1
e|------------------------------------------------------------------|
B|------------------------------------------------------------------|
G|-----------------------7------------------------------------------|
D|---5-------------------7------------------------------------------|
A|---5-------------------5------------------------------------------|
E|---3--------------------------------------------------------------|

Guitar 2
e|---3-------------------3------------0---2-------------------------|
B|---3-------------------2--------------------3---------------------|
G|---0-------------------3------------------------2-----------------|
D|---0-------------------0------------------------------------------|
A|---2--------------------------------------------------------------|
E|---3--------------------------------------------------------------|

Guitar 1
e|------------------------------------------------------------------|
B|------------------------------------------------------------------|
G|------------------------------------------------------------------|
D|---7-------------------5------------------------------------------|
A|---7-------------------5------------------------------------------|
E|---5-------------------3------------------------------------------|

Guitar 2
e|---0-------------------3------------------------------------------|
B|---1-------------------3------------------------------------------|
G|---0-------------------0------------------------------------------|
D|---2-------------------0------------------------------------------|
A|---3-------------------2------------------------------------------|
E|-----------------------3------------------------------------------|

Guitar 1
e|--------------|
B|--------------|
G|---7----------|
D|---7----------|
A|---5----------|
E|--------------|

Guitar 2
e|---3----------|
B|---2----------|
G|---3----------|
D|---0----------|
A|--------------|
E|--------------|





Chorus

Guitar 1 x3
e|----------------------------------------------------------------|
B|----------------------------------------------------------------|
G|---7------------------------------------------------------------|
D|---7------------------------------------7-----------------------|
A|---5------------------------------------7-----------------------|
E|----------------------------------------5-----------------------|

Guitar2 x3
e|----------------------------------------------------------------|
B|----------------------------------------------------------------|
G|---7------------------------------------9-----------------------|
D|---x------------------------------------x-----------------------|
A|---5------------------------------------7-----------------------|
E|----------------------------------------------------------------|

Guitar 1
e|----------------------------------------------------------------|
B|----------------------------------------------------------------|
G|----------------------------------------------------------------|
D|---5------------------------------------------------------------|
A|---5------------------------------------------------------------|
E|---3------------------------------------------------------------|

Guitar2
e|----------------------------------------------------------------|
B|----------------------------------------------------------------|
G|---7------9------11-----12--------------------------------------|
D|---x------x------x-------x--------------------------------------|
A|---5------7------9------10--------------------------------------|
E|----------------------------------------------------------------|

Guitar 1
e|----------------------------------------------------------------|
B|----------------------------------------------------------------|
G|---7------------------------------------------------------------|
D|---7------------------------------------7-----------------------|
A|---5------------------------------------7-----------------------|
E|----------------------------------------5-----------------------|

Guitar 2
e|----------------------------------------------------------------|
B|----------------------------------------------------------------|
G|---11---9---7---------------7-------7---9-----------------------|
D|---x----x---x---9---7---9---x---9---x---x-----------------------|
A|---9----7---5---x---x---x---5---x---5---7-----------------------|
E|----------------7---5---7-------7-------------------------------|

Guitar 1
e|----------------------------------------------------------------|
B|----------------------------------------------------------------|
G|---7------------------------------------------------------------|
D|---7------------------------------------7-----------------------|
A|---5------------------------------------7-----------------------|
E|----------------------------------------5-----------------------|

Guitar 2
e|----------------------------------------------------------------|
B|----------------------------------------------------------------|
G|---11---9---7---------------7-----------------------------------|
D|---x----x---x---9---7---9---x---9------7------------------------|
A|---9----7---5---x---x---x---5---x------x------------------------|
E|----------------7---5---7-------7------5------------------------|




Solo
I know this is not accurate but I gave it my best shot.

Guitar 1 x4
e|---------------------------------------------------------------|
B|---------8--------8--------8--------7--------7--------7--------|
G|------7--------7--------7--------7--------7--------7-----------|
D|---5--------5--------5--------7--------7--------7--------------|
A|---------------------------------------------------------------|
E|---------------------------------------------------------------|

Guitar 2 x4
e|---------8--------8--------8--7--------------------------------|
B|---------------------------------------------------------------|
G|---------------------------------------------------------------|
D|---------------------------------------------------------------|
A|---------------------------------------------------------------|
E|---------------------------------------------------------------|

e|---10---8-------10---7-------10------7--------------10---------|
B|------------8------------8-----------10b1/2---8-8-7------10----|
G|----------------------------------------------------------7----|
D|---------------------------------------------------------------|
A|---------------------------------------------------------------|
E|---------------------------------------------------------------|


Outro

e|----------------------------------------------------------------|
B|----------------------------------------------------------------|
G|---7------9------11-----12--------------------------------------|x2
D|---x------x------x-------x--------------------------------------|
A|---5------7------9------10--------------------------------------|
E|----------------------------------------------------------------|

e|----------------------------------------------------------------|
B|----------------------------------------------------------------|
G|---14-----12------11------9------14------16------17------16-----|
D|---x-------x-------x------x-------x-------x-------x-------x-----|
A|---12-----10-------9------7------12------14------15------14-----|
E|----------------------------------------------------------------|

Guitar 1
e|--------------|
B|--------------|
G|---7----------|
D|---7----------|
A|---5----------|
E|--------------|

Guitar 2
e|---3----------|
B|---2----------|
G|---3----------|
D|---0----------|
A|--------------|
E|--------------|


---------
BURN AWAY
---------

-----------------------------------------------------
	"Burn Away" - Foo Fighters from One By One
-----------------------------------------------------

By: Erik Frank

This song is in "dropped D" tuning

INTRO:(X2)
e|---------------x-----------------------------|
B|---------------3-----------------------------|
G|---------------2-----------------------------|
D|77-5-9-7-579---0-----------------------------|
A|77-5-9-7-579---0-----------------------------|
D|77-5-9-7-579---0-----------------------------|

RIFF A:
e|---------------------------------------------|
B|---------------------------------------------|
G|---------------------------------------------|
D|77-5-9-7-579-200-----------------------------|
A|77-5-9-7-579-200-----------------------------|
D|77-5-9-7-579-200-----------------------------|

e|---------------------------------------------|
B|---------------------------------------------|
G|--(7)----------------------------------------|
D|77-7-9-7-579-200-----------------------------|
A|77-5-9-7-579-200-----------------------------|
D|77-x-9-7-579-200-----------------------------|



VERSE: ("I have spent a lifetime...")(palm-muted)
e|---------------------------------------------|
B|---------------------------------------------|
G|---------------------------------------------|
D|77-5555555555555555--------------------------|
A|77-5555555555555555--------------------------|
D|77-5555555555555555--------------------------|

e|---------------------------------------------|
B|---------------------------------------------|
G|---7777777777777777--------------------------|
D|77-7777777777777777--------------------------|
A|77-5555555555555555--------------------------|
D|77-xxxxxxxxxxxxxxxx--------------------------|

e|---------------------------------------------|
B|---------------------------------------------|
G|---------------------------------------------|
D|77-5555555555555555--------------------------|
A|77-5555555555555555--------------------------|
D|77-5555555555555555--------------------------|

e|---------------------------------------------|
B|---------------------------------------------|
G|---7777777777777777--------------------------|
D|77-7777777777777777--------------------------|
A|77-5555555555555555--------------------------|
D|77-xxxxxxxxxxxxxxxx--------------------------|

e|---------------------------------------------|
B|---------------------------------------------|
G|---------------------------------------------|
D|77-5555555555555555--------------------------|
A|77-5555555555555555--------------------------|
D|77-5555555555555555--------------------------|

e|---------------------------------------------|
B|---------------------------------------------|
G|---7777777777777777--------------------------|
D|77-7777777777777777--------------------------|
A|77-5555555555555555--------------------------|
D|77-xxxxxxxxxxxxxxxx--------------------------|

e|---------------------------------------------|
B|---------------------------------------------|
G|---------------------------------------------|
D|77-5555555555555555--------------------------|
A|77-5555555555555555--------------------------|
D|77-5555555555555555--------------------------|

e|---------------------------------------------|
B|---------------------------------------------|
G|--(7)----------------------------------------|
D|77-7-9-7-579-200-----------------------------|
A|77-5-9-7-579-200-----------------------------|
D|77-x-9-7-579-200-----------------------------|


CHORUS: ("We'll burn away, burn away my bride...")
e|---------------------------------------------|
B|---------------------------------------------|
G|---------------------------------------------|
D|5555559\-4444447\-2222227\-000000-04---------|
A|5555559\-4444447\-2222227\-000000-04---------|
D|5555559\-4444447\-2222227\-000000-04---------|

e|---------------------------------------------|
B|---------------------------------------------|
G|---------------------------------------------|
D|5555559\-4444447\-2222227\-000000-04---------|
A|5555559\-4444447\-2222227\-000000-04---------|
D|5555559\-4444447\-2222227\-000000-04---------|


e|---------------------------------------------|
B|---------------------------------------------|
G|---------------------------------------------|
D|5555559\-4444447\-2222227\-000000-04---------|
A|5555559\-4444447\-2222227\-000000-04---------|
D|5555559\-4444447\-2222227\-000000-04---------|

e|---------------------------------------------|
B|---------------------------------------------|
G|---------------------------------------------|
D|5555559\-4444447\-2222227\-000000-04---------|
A|5555559\-4444447\-2222227\-000000-04---------|
D|5555559\-4444447\-2222227\-000000-04---------|


BRIDGE:("Breathe for me from now on...")
e|---------------------------------------------|
B|---------------------------------------------|
G|--------7777---------------------------------|
D|5555777777777777-----------------------------|
A|5555777755555555-----------------------------|
D|55557777xxxx5555-----------------------------|

e|---------------------------------------------|
B|---------------------------------------------|
G|--------7777---------------------------------|
D|5555777777777777-----------------------------|
A|5555777755555555-----------------------------|
D|55557777xxxx5555-----------------------------|

e|---------------------------------------------|
B|---------------------------------------------|
G|---------------------------------------------|
D|555577779999 10 10 10 10 55552224------------|
A|555577779999 10 10 10 10 55552224------------|
D|555577779999 10 10 10 10 55552224------------|

(RIFF A)
e|---------------------------------------------|
B|---------------------------------------------|
G|--------------------(7)----------------------|
D|77-5-9-7-579-200--77-7-9-7-579-200-----------|
A|77-5-9-7-579-200--77-5-9-7-579-200-----------|
D|77-5-9-7-579-200--77-x-9-7-579-200-----------|


(back to VERSE+CHORUS)

BRIDGE 2:("Burn on, burn on...")
e|---------------------------------------------|
B|---------------------------------------------|
G|---------------------------------------------|
D|999999997777777755555555---------------------|
A|999999997777777755555555---------------------|
D|999999997777777755555555---------------------|

e|---------------------------------------------|
B|---------------------------------------------|
G|---------------------------------------------|
D|999999997777777755555555---------------------|
A|999999997777777755555555---------------------|
D|999999997777777755555555---------------------|

e|---------------------------------------------|
B|---------------------------------------------|
G|---------------------------------------------|
D|999999997777777755555555--77-5-9-7-579-------|
A|999999997777777755555555--77-5-9-7-579-------|
D|999999997777777755555555--77-5-9-7-579-------|

e|---------------------------------------------|
B|---------------------------------------------|
G|---------------------------------------------|
D|77-5-9-7-579---------------------------------|
A|77-5-9-7-579---------------------------------|
D|77-5-9-7-579---------------------------------|

RIFF A: ("I'll never burn again...")
e|---------------------------------------------|
B|---------------------------------------------|
G|---------------------------------------------|
D|77-5-9-7-579-200-----------------------------|
A|77-5-9-7-579-200-----------------------------|
D|77-5-9-7-579-200-----------------------------|

e|---------------------------------------------|
B|---------------------------------------------|
G|--(7)----------------------------------------|
D|77-7-9-7-579-200-----------------------------|
A|77-5-9-7-579-200-----------------------------|
D|77-x-9-7-579-200-----------------------------|


END:

e|---------------------------------------------|
B|---------------------------------------------|
G|7-5----5-7-----------------------------------|
D|7-5----5-7-----------------------------------|
A|7-5----5-5-----------------------------------|
D|7-5----5-0-----------------------------------|


---------
COME BACK
---------

foo fighters - come back 
tabbed by tom kelly(tuhu27@hotmail.com 
i'm pretty pleased with this tab. see how you go with it. 

key/legend: 
~ - hold note/vibrato 
s - slide up or down 
^ - hammer on/pull off 
b - bend 
*--/ 
--/-  means repeat last bar 
-/--  i used it for the acoustic bit 
/--* 
intro/verse 
e|--------------------------------------------------- 
B|---------------------------------------------------
G|--------------------------------------------------- 
D|-------------------------------------4s6----------- 
A|-11-11-11-11-11--9--9--9--9-9-9-9-9------7^6------- 
E|--9--9--9--0--0--0--0--0--7-7-7-0-0----------7-(6)-
                                                  | 
                                unsure about this note 

prechorus: 
e|------  -------------------------- 
B|------  -------------------------- 2nd guitar plays the 
G|------  -------------------------- A string part, 1st 
D|--7---  -------------------------- plays just A chord 
A|--7---  ----7~---6~---4~---2~-----
E|--5---  -------------------------- 

bridge: 
1st guitar 
e|---------------------------------------------------------- 
B|---------------------------------------------------------- 
G|--13--11s10--8s6--8----6-----13--11s9--------------6---8-- 
D|--------------------6-----------------11s9--11s14--6-6-8-- 
A|--11---9s8---6s4--6----4-----11---9s7--------------4-6-6-- 
E|--------------------4------------------9s7---9s12----4----

i think the 3 chords at the end are a second guitar. but if you are 
on your own like me, play the last octave note at the 7th fret of the A 
string, rather than at the 12th of the E string, it makes the jump a lot 
smaller. 
 bridge: the other way to play it 
e|----------------------------------------------------------
B|---------------------------------------------------------- 
G|--13--11s10--8s6--8----6-----13--11s9--6s4--6s9--6---8---- 
D|--------------------6----------------------------6-6-8---- 
A|--11---9s8---6s4--6----4-----11---9s7--4s2--4s7--4-6-6----
E|--------------------4------------------------------4------

bridge: 2nd guitar 
e|----------------- 
B|-----------------   i'm not too sure about this. 
G|--6-----9-------- you'll have to figure the timing 
D|--6--6--9--9-----   out i dunno how to tab that. 
A|--4--6--7--9----- 
E|-----4-----7----- 

finish on A: 
e|-----      ---------------------- 
B|-----      ---------------------- 
G|-----      ---------------------- 
D|--7-- then ---------------------- 
A|--7--      --7~---6~---4~---2~--- 
E|--5--      ----------------------

Acoustic bit: this could take a while. i'll do both guitars. 
G1 is basically the intro, and it doesn't really stray. 
after a while he starts to strum more, but its the same thing the whole time. 
G1 
e|----------------------------------------------------------- 
B|-----------------------------------------------------------
G|----------------------------------------------------------- 
D|----------------------------------------------------------- 
A|-11-11--9--4----------------------------------------------- 
E|--9--0--7--2-----------------------------------------------

2 
e|-----------|---------|----------------|---------------------- 
B|-----------|---------|----------------|----------------------
G|-----------|---------|----------8--6--|--------9^11-9--8--6--
D|---4s9^11--|-4s9^11--|-4s9^11------4--|-4s9^11-------------4- 
A|-----------|---------|----------------|---------------------- 
E|-----------|---------|----------------|---------------------- 

e|------------------------|(repeat)|-------7-|-----------------------
B|---5---4--5--5s7--------|--*--/--|---7s9---|---5---4--5--5s7------- 
G|-6---6------------8--6--|----/---|---------|-6---6------------8--6- 
D|------------------------|---/----|---------|-----------------------
A|------------------------|--/--*--|---------|-----------------------
E|------------------------|--------|---------|-----------------------

e|---------------------------------|---------------------| 
B|---------------------------------|---------------------| electric guitar starts 
G|--8^9--8^9-9s11-9----------------|---s9-8^9-9^11-------| in in the background 
D|--------------------9^11--9^8-9--|---------------9-11--| 
A|---------------------------------|---------------------| 
E|---------------------------------|---------------------| 

e|------------------------|---------------------------------------|- 
B|---5---4--5--5s7--------|--9-----12-11--------------------------|- 
G|-6---6------------8--6--|--------------11--9--8^9-9s11-9-8^9----|- 
D|------------------------|----11------------------------------9--|- 
A|------------------------|---------------------------------------|- 
E|------------------------|---------------------------------------|-

e|------------------------|--------|-------------------9--- 
B|---5---4--5--5s7--------|--*--/--|-----------9--12-9---9- 
G|-6---6------------8--6--|----/---|--8-9-9s11------------- 
D|------------------------|---/----|----------------------- 
A|------------------------|--/--*--|----------------------- 
E|------------------------|--------|----------------------- 

full electrics now 
G1 for 8 bars         G2 comes in after 4 bars with: 
e|---------------  ------------------------ 
B|---------------  ---9-9-9-9-9-9-9-9-9-9-- 
G|--6--4---------  ------------------------  for 4 bars 
D|--6--4--7--4---  ---6-6-6-6-6-6-6-6-6-6-- 
A|--4--2--7--4---  ------------------------ 
E|--------5--2---  ------------------------

then is goes like this. i'm not certain here, but it sounds close. 
its just hte chorus riff whit extra guitar 2. 
G1 
e|--------------------------------------------------------------------
B|--------------------------------------------------------------------
G|--6-6-6-6----------------------------------------------------------- 
D|--6-6-6-6--7-7-7--4-4-4-4--6-6-6--2-2-2-2--4-4-4--7-7-7-7--9-9-9---- 
A|--4-4-4-4--7-7-7--4-4-4-4--6-6-6--2-2-2-2--4-4-4--7-7-7-7--9-9-9---- 
E|-----------5-5-5--2-2-2-2--4-4-4--0-0-0-0--2-2-2--5-5-5-5--7-7-7---- 

e|------------------------------------------------------------------
B|--9-9-9-9-9-9-9-9-9-9-9-9-----------------------------------------
G|---------------------------5-5-5--6-6-6-6--9-9-9--6-6-6-6--8-8-8-- 
D|--6-6-6-6-6-6-6-6-6-6-6-6----------------------------------------- 
A|---------------------------3-3-3--4-4-4-4--7-7-7--4-4-4-4--6-6-6-- 
E|------------------------------------------------------------------ 

ending riff: 
e|---------------------------------- 
B|---------------------------------- 
G|---------------------------------- 
D|---11-11-11-11-11-11-11-11-11----- 
A|---11-11-11-11-11-11-11-11-11----- 
E|----9--9--0--9--0--9--0--9--9-----




There it is. Isn't that easier?
comments
print report bad tab
3 comments total.
0 reply
stumaster18 wrote on February 12 2006, 08:24 am

did this tab really need this much effort. c'mon man, you could have shortened it into like 8 bars. it's all powerchords.

0 reply
stumaster18 wrote on February 12 2006, 08:25 am

oh. I see what you did. my bad. lol

0 reply
zeppelin-rocker wrote on July 11 2006, 08:28 am

h...shame

I want to post or [tab]
guest
You may want to rate the tab now too:
select rating
Please do not post tabs as comments. Select "correction" instead!