Oops, an error
Loading. Please wait.

The Color And The Shape Tab

25,740 views 27 this week
6 commentsread comments
1 2 3 4 5
accurate
x 10
Autoscroll
+/-
esc
set tempo
stop
Contributor
Hey! There's an official Ultimate Guitar app which is ideal
for learning songs when you're away from computer. Get the app
WARNING: You are trying to view
                                    content from Ultimate-Guitar.com
                                    in an unauthorized application,
                                    which is prohibited.

                                    Please use an official Ultimate
                                    Guitar Tabs application for iPhone,
                                    iPad or Android to access legitimate
                                    chords, guitar, bass, and drum tabs
                                    from Ultimate-Guitar.com database.

                                    Type "ultimate guitar tabs" in Apple
                                    App Store's or Android Market's
                                    search to find the application.
The Color And The Shape - Foo Fighters

01. Doll 
02. Monkey Wrench 
03. Hey, Johnny Park! 
04. My Poor Brain 
05. Wind Up 
06. Up In Arms 
07. My Hero 
08. See You 
09. Enough Space 
10. February Stars 
11. Everlong 
12. Walking After You 
13. New Way Home 
_____________________________________________________________________

01. Doll

Intro/Verse
       G    Am   B    Bb   Am    D   G
e||----3----0----2----1----0-----2---3----||
B||----3----1----3----2----1-----3---3----||
G||----0----2----4----3----2-----2---0----||
D||----0----2----4----3----2-----0---0----||
A||----2----0----2----1----0---------2----||
E||----3-----------------------------3----||


Outro 
       F    E     Am    D        G               G
e||----1----0-----0-----2----------------3-------3----||
B||----1----0-----1-----3--------------3---------3----||
G||----2----1-----2-----2-------------0----------0----||
D||----3----2-----2-----0-----------0------------0----||
A||----3----2-----0----------------2-------------2----||
E||----1----0--------------------3---------------3----||
   oh oh oh oh  doll...                    ...there


Lyrics & Tempo

You know in all of the time that we shared
            G                       Am

I've never been so scared
B                  Bb

Doll me up in my bad luck
Am            D

I'll meet you there
G


I wish I never had taken this dare
G                             Am       

I wasn't quite prepared
B                      Bb

Doll me up in my bad luck
Am            D


Oh oh oh oh, oh oh oh oh 
F                       E

Doll me up in my bad luck
Am            D

I'll meet you there...
G
_________________________________________________________

02. Monkey Wrench

Intro
(1st Version)
e||-----------------------------------------------------------------------||
B||--7-7-5-5-4-4-----5-5-4-4----------------------------------------------||
G||--------------6-6---------6-6-4-4-6-6-4-4-----4-4-6-6------------------||
D||------------------------------------------6-6----------4-4--6b1/2-6-4--||
A||-----------------------------------------------------------------------||
E||-----------------------------------------------------------------------||

(Acoustic Version)
e||---0--0-0-0-0-0-0-0-0-0-0-0-0-0-0-0-0-0-0-0-0-0-0-0-0-0-0-0-0-0-------0-0--||
B||---0--0-0-0-0-0-0-0-0-0-0-0-0-0-0-0-0-0-0-0-0-0-0-0-0-0-0-0-0-0-------0-0--||
G||--11-11-9-9-8-8-6-6-9-9-8-8-6-6-4-4/6-6-4-4-1-1-4-4-6-6-4-4-6-6(1/2b)-6-4--||
D||---------------------------------------------------------------------------||
A||---------------------------------------------------------------------------||
E||---------------------------------------------------------------------------||

This little riff is only played live. That's really fast paced and played 2 times in
the song (after each Intro riff). 
e||--7-7----7-7----7-7---|-7-7-10--7-10--7-9h10p9-7--||
B||--7-7-9--7-7-9--7-7-9-|-7-7-10--7-10--7-9h10p9-7--||
G||------9------9------9-|---------------------------||
D||----------------------|---------------------------||
A||----------------------|---------------------------||
D||----------------------|---------------------------||


Verse
        PM------------------------------------------------|
e||--------------------------------------------------------------------||
B||--------------------------------------------------------------------||
G||--4--4-4-4-4-4-4-4-4-4----------------------------------------------||
D||--4--4-4-4-4-4-4-4-4-4--4-4-4-4-2-2-2-2-2-2-2-2-2-2-2-2--0-2-0-2-0--||
A||--2--2-2-2-2-2-2-2-2-2--4-4-4-4-2-2-2-2-2-2-2-2-2-2-2-2--0-2-0-2-0--||
E||------------------------4-4-4-4-2-2-2-2-2-2-2-2-2-2-2-2--0-2-0-2-0--||
   "What have we done with innocence..."


Pre-Chorus
e||------------------------------||
B||------------------------------||
G||------------------------------||
D||--2--2-2-0--2--2-2-0-2-0-2-0--||
A||--2--2-2-0--2--2-2-0-2-0-2-0--||
E||--2--2-2-0--2--2-2-0-2-0-2-0--||
   "One in ten..."


Chorus
e||----------------------------------------||
B||----------------------------------------||
G||--4--4-4-4---------------------------5--||
D||--4--4-4-4--6--6-6--6-6-4-2---4-2-4--5--||
A||--2--2-2-2--6--6-6--6-6-4-2---4-2-4--3--||
E||------------6--6-6--6-6-4-2---4-2-4-----||
   "Don't want to be your monkey wrench"


Bridge
(Gtr. 1)
e||------------------------------------------------------------||
B||------------------------------------------------------------||
G||------9-----------------------------------------------------||
D||--6-6-9-9--5-5-5-5-5-5-5--4-2-2-2-2-2-2-2--4-2-2-2-2-2-2-2--||
A||--6-6-7-9--5-5-5-5-5-5-5--4-2-2-2-2-2-2-2--4-2-2-2-2-2-2-2--||
E||--6-6---9--5-5-5-5-5-5-5--4-2-2-2-2-2-2-2--4-2-2-2-2-2-2-2--||
   "Temper..."                                                 ||
                                                               ||
(Gtr. 2)                                                       ||
e||--------------------------0-0-0-0-0-0-0-0--0-0-0-0-0-0-0-0--||
B||--------------------------0-0-0-0-0-0-0-0--0-0-0-0-0-0-0-0--||
G||--------------------------1-1-1-1-1-1-1-1--1-1-1-1-1-1-1-1--||
D||------------------------------------------------------------||
A||------------------------------------------------------------||
E||------------------------------------------------------------||

(Gtr. 1)
e||-----------------------------------------------------------------||
B||-----------------------------------------------------------------||
G||--4-4-4-4-4-4-4-4-4-4--------------------------------------------||
D||--4-4-4-4-4-4-4-4-4-4-4-4-4-4-2-2-2-2-2-2-2-2-2-2-2-2-0-2-0-2-0--||
A||--2-2-2-2-2-2-2-2-2-2-4-4-4-4-2-2-2-2-2-2-2-2-2-2-2-2-0-2-0-2-0--||
E||----------------------4-4-4-4-2-2-2-2-2-2-2-2-2-2-2-2-0-2-0-2-0--||
"One last thing before I quit..."                                   ||
                                                                    ||
(Gtr. 2)                                                            ||
e||-----------------------------------------------------------------||
B||-----------------------------------------------------------------||
G||--4-4-4-4-4-4-4-4-4-4--------------------------------------------||
D||--x-x-x-x-x-x-x-x-x-x--------------------------------------------||
A||--2-2-2-2-2-2-2-2-2-2--------------------------------------------||
E||-----------------------------------------------------------------||

______________________________________________________________________

03. Hey, Johnny Park!

Intro
e|-----X---------X-----4-X-X-4-X-4-4--------------------------|
B|-----X---------X-----3-X-X-3-X-3-3--------------------------|
G|-----X-7-6-----X-7-6-4-X-X-4-X-4-4--------------------------|
D|-9-9-X-----7-7-X-----2-X-X-2-X-2-2--2P0-2-4-5-5----0-0------|
A|-9-9-X-----7-7-X-----2-X-X-2-X-2-2--2P0-2-4-5-5----0-0------|
E|-9-9-X-----7-7-X-----2-X-X-2-X-2-2--2P0-2-4-5-5-12\0-0-5/12-|
 
e|-4-X-X-4-X-4-4----------------X---------X-----4-X-X-4-X-4-4-|
B|-3-X-X-3-X-3-3----------------X---------X-----3-X-X-3-X-3-3-|
G|-4-X-X-4-X-4-4----------------X-7-6-----X-7-6-4-X-X-4-X-4-4-|
D|-2-X-X-2-X-2-2------------9-9-X-----7-7-X-----2-X-X-2-X-2-2-|
A|-2-X-X-2-X-2-2--------0---9-9-X-----7-7-X-----2-X-X-2-X-2-2-|
E|-2-X-X-2-X-2-2--2P0-2-----9-9-X-----7-7-X-----2-X-X-2-X-2-2-|
 
e|-------------------------|
B|-------------------------|
G|-------------------------|
D|--2P0-2-4-5-5----0-0-0-0-|
A|--2P0-2-4-5-5----0-0-0-0-|
E|--2P0-2-4-5-5-12\0-0-0-0-|


Verse (Repeat 2x)
e|---2-2-2-X---2-X-X---2-2-2-2-2-3P2-----2-2-2-X---2-X-X-|
B|---3-3-3-X---3-X-X---3-3-3-3-3----3----3-3-3-X---3-X-X-|
G|---4-4-4-X---4-X-X---2-2-2-2-2---------4-4-4-X---4-X-X-|
D|-------------------0-0-0-0-0-0-------------------------|
A|-2---------2-------------------------2---------2-------|
E|-------------------------------------------------------|

e|--2-2-2-2-2-3P2----2-2-2-X---2-X-X---0-0-0-0-0-0-|
B|--3-3-3-3-3----3---3-3-3-X---3-X-X---2-2-2-3-3-2-|
G|--2-2-2-2-2--------4-4-4-X---4-X-X---2-2-2-2-2-2-|
D|0-0-0-0-0-0--------------------------2-2-2-2-2-2-|
A|-----------------2---------2-------0-------------|
E|-------------------------------------------------|

e|---4---------4---------4---------|
B|---3---------3---------3---------|
G|---4---------4---------4---------|
D|---------------------------------|
A|---------------------------------|
E|-2---0H2P0H2---0H2P0H2---0H2P0H2-|


Chorus
e|-----------------------2-2-X-X-2-2-2-2-2-|
B|-----------------------3-3-X-X-3-3-3-3-3-| (3x)
G|-----------------------2-2-X-X-2-2-2-2-2-|
D|-2-4-5-5-X-X-5-5-5-5-5-0-0-X-X-0-0-0-0-0-|
A|-2-4-5-5-X-X-5-5-5-5-5-0-0-X-X-0-0-0-0-0-|
E|-2-4-5-5-X-X-5-5-5-5-5-0-0-X-X-0-0-0-0-0-|
 
e|---------------------------------|
B|---------------------------------| (2x)
G|-5-5-5-5-5-5-5-------------------|
D|-5-5-5-5-5-5-5-0-3-3-3-5-0-0-0-0-|
A|-3-3-3-3-2-2-2-0-3-3-3-5-0-0-0-0-|
E|---------------0-3-3-3-5-0-0-0-0-|

______________________________________________________________

04. My Poor Brain

Intro/Verse
(Gtr. 1)
     C#     C#sus      F#    C#sus
e||--9--------9--------9-------9---||
B||--9--------9--------11------9---||
G||--10-------11-------11------11--||
D||--11-------11-------9-------11--||
A||--11-------9--------9-------9---||
E||--9--------9--------9-------9---||

(Gtr. 2)
     C#
e||--9---||
B||------||
G||------||
D||--11--||
A||------||
E||------||


Chorus
e||----------------------------------|
B||----------------------------------|
G||--6-6-6-6---4-4---4-4-4-4---9-7-6-|
D||--6-6-6-6---4-4---4-4-4-4---9-7-6-|
A||--4-4-4-4---2-2---2-2-2-2---7-6-4-|
E||----------------------------------|

e|----------------------------------||
B|----------------------------------||
G|-6-6-6-6---4-4---4-4-4-4----------||
D|-6-6-6-6---4-4---4-4-4-4---5-4-2--||
A|-4-4-4-4---2-2---2-2-2-2---5-4-2--||
E|---------------------------3-2-0--||


Interlude
e||---------------------------------|
B||---------------------------------|
G||---------------------------------|
D||-6-6-6-6-6-6-6-6-9-9-9-9-9-9-9-9-|
A||-6-6-6-6-6-6-6-6-9-9-9-9-9-9-9-9-|
E||-4-4-4-4-4-4-4-4-7-7-7-7-7-7-7-7-|

e|-----------------------------------||
B|-----------------------------------||
G|-----4-----4--6------4------4-5-6--||
D|--------------6-------------4-5-6--||
A|-4-4---4-4----4--4-4---4-4--2-3-4--||
E|-----------------------------------||


Solo
      C#             F#             F# 
e||---------------|--------------|-----------||
B||--/-9--9--9--9-|-/11-11-11-11-|-\7-7-7-7--||
G||--/10-10-10-10-|-/11-11-11-11-|-\8-8-8-8--||
D||---------------|--------------|-----------||
A||---------------|--------------|-----------||
E||---------------|--------------|-----------||


Outro
(Gtr. 1)
e||------------------------------------||
B||------------------------------------||
G||-----4-----4--6------4-------4-5-6--||
D||--------------6--------------4-5-6--||
A||-4-4---4-4----4--4-4---4-4---2-3-4--||
E||------------------------------------||

(Gtr. 2)
Play the intro part of the guitar 2 with distortion.
_________________________________________________________________

05. Wind Up

Intro
e||---------------------------2---------------------------2----||
B||----0-0-0-0-0-0-0-0-0-0-0--3----0-0-0-0-0-0-0-0-0-0-0--3-2--||
G||--2-4-4-4-4-4-4-4-4-4-3-2--2--2-4-4-4-4-4-4-4-4-4-3-2--2-2--||
D||---------------------------0---------------------------0-2--||
A||---------------------------------------------------------0--||
E||------------------------------------------------------------||


Verse
(Guitar 1)
e||--------------------------2-|-------------------------2----||
B||--------------------------3-|-------------------------3-2--||
G||--------------------------2-|-------------------------2-2--||
D||--9-9-9-7-8-9-7-8-9-8-7---0-|-9-9-9-7-8-9-7-8-9-8-7---0-2--||
A||--9-9-9-7-8-9-7-8-9-8-7-----|-9-9-9-7-8-9-7-8-9-8-7-----0--||
E||--7-7-7-5-6-7-5-6-7-6-5-----|-7-7-7-5-6-7-5-6-7-6-5--------||
  (3x)

(Guitar 2)
Same As Intro


Chorus
e||-------------------------------------------------------------------||
B||-------------------------------------------------------------------||
G||----------------------------------7-7-7-7-7-7-7-7-9-9-9-9-9-9-8-7--||
D||--9-9-9-9-9-9-9-9-7-7-7-7-7-7-7-7-7-7-7-7-7-7-7-7-9-9-9-9-9-9-8-7--||
A||--9-9-9-9-9-9-9-9-7-7-7-7-7-7-7-7-5-5-5-5-5-5-5-5-7-7-7-7-7-7-6-5--||
E||--7-7-7-7-7-7-7-7-5-5-5-5-5-5-5-5----------------------------------||


Bridge
e||-----------------------------------------|
B||-----------------------------------------|
G||--4-4-4-4-6-6-6-6-8-8-8-8-11-3-3-3-3---3-|
D||--x-x-x-x-x-x-x-x-x-x-x-x-x--x-x-x-x-6-x-|
A||--2-2-2-2-4-4-4-4-6-6-6-6-9--1-1-1-1-x-1-|
E||-------------------------------------4---|

e|-------------------------------------------------------||
B|-------------------------------------------------------||
G|-9--7--9--8--4-----6--4--3--9--7--9--8--4-----6--8--9--||
D|-x--x--x--x--x--6--x--x--x--x--x--x--x--x--6--x--x--x--||
A|-7--5--7--6--2--x--4--2--1--7--5--7--6--2--x--4--6--7--||
E|----------------4--------------------------4-----------||


Interlude (Wah-wah pedal)
(Guitar 1)
e||-----------------------||
B||-----------------------||
G||--9-9-9-9-9-9-9-9-9-9--||
D||--x-x-x-x-x-x-x-x-x-x--||
A||--7-7-7-7-7-7-7-7-7-7--||
E||-----------------------||

(Guitar 2)
e||-------------------------------||
B||-------------------------------||
G||--2---------------2------------||
D||--2-4-2-3-4-4-4---2-4-2-3-4-4--||
A||--0-4-2-3-4-4-4---0-4-2-3-4-4--||
E||----2-0-1-2-2-2-----2-0-1-2-2--||

_________________________________________________________

06. Up In Arms

Verse
e||--3---3---0---3---1---4---3--||
B||--1---1---1---3---1---4---1--||
G||--0---0---2---0---2---5---0--||
D||--2---x---2---0---3---6---2--||
A||--3---2---0---2---3---6---3--||
E||--------------3---1---4------||


Chorus
e||--1---4---3-----0-----1-----4-----3--||
B||--1---4---1-----1-----1-----4-----1--||
G||--2---5---0-----2-----4-----5-----0--||
D||--3---6---2-----2-----3-----6-----2--||
A||--3---6---3-----0-----3-----6-----3--||
E||--1---4---------------1-----4--------||


Solo
e||-----------------------------------------------------------------|
B||-----------------------------------------------------------------|
G||--9--7----------------7-------------------9--9--9--9--9--9--9--9-|
D||--------7--10--7--10-----10--7--10--7--5-------------------------|
A||-----------------------------------------------------------------|
E||-----------------------------------------------------------------|

e|-----------------------------------------------------------------||
B|----8-----7---------------------------------5--5--5--5--5--5--5--||
G|-9-----9----------------7-------------------5--5--5--5--5--5--5--||
D|-------------10--7--10-----10--7--10--7--5--5--5--5--5--5--5--5--||
A|-----------------------------------------------------------------||
E|-----------------------------------------------------------------||
____________________________________________________________________

07. My Hero

Intro
e||-----------------------------------0-0-0-0---0-0-0-0--||
B||-----------------------------------4-5-4-0---4-5-4-0--||
G||-----------------------------------------4---------4--||
D||------------------------------------------------------||
A||------------------4-4-4-4-4-4-4-4---------------------||
E||--0-0-0-0-0-0-0-0-------------------------------------||


Verse
(Guitar 1)
e||--0-0-0-0-0-0-0-0-0-0-0-0-0-0-0-0-0--||
B||--4-5-5-5-5-5-5-4-4-7-4-4-4-7-5-5-5--||
G||-------------------------------------||
D||-------------------------------------||
A||-------------------------------------||
E||-------------------------------------||

(Guitar 2)
e||--0-0-0-0-0-0-0-0------------------||
B||--0-0-0-0-0-0-0-0------------------||
G||--1-1-1-1-1-1-1-1-6-6-6-6-6-6-6-6--||
D||--2-2-2-2-2-2-2-2-6-6-6-6-6-6-6-6--||
A||--2-2-2-2-2-2-2-2-4-4-4-4-4-4-4-4--||
E||--0-0-0-0-0-0-0-0------------------||


Chorus
e||--------------------------------------|-------------------------------------|
B||--------------------------------------|-------------------------------------|
G||----------8-8-8-8-9-9-9-9-11-11-11-11-|---------8-8-8-8-9-9-9-9-11-11-11-11-|
D||--7-7-7-7-x-x-x-x-x-x-x-x-x--x--x--x--|-2-2-2-2-x-x-x-x-x-x-x-x-x--x--x--x--|
A||--7-7-7-7-6-6-6-6-7-7-7-7-9--9--9--9--|-2-2-2-2-6-6-6-6-7-7-7-7-9--9--9--9--|
E||--5-5-5-5-----------------------------|-0-0-0-0-----------------------------|
 (2x)

e|-----------------------------------------|--------------||
B|-----------------------------------------|--------------||
G|---------11-11-11-11-13-13-13-13-8-8-8-8-|--------------||
D|-2-2-2-2-x--x--x--x--x--x--x--x--x-x-x-x-|--------------||
A|-2-2-2-2-9--9--9--9--11-11-11-11-6-6-6-6-|-----4-2------||
E|-0-0-0-0---------------------------------|-2-2-----4-5--||


Interlude
e||--0-----0-------0-----0----------||
B||--0-----0-------0-----0----------||
G||--1-----1---6---1-----1---6------||
D||--2-----2---6---2-----2---6---2--||
A||--2-----2---4---2-----2---4---2--||
E||--0-----0-------0-----0-------0--||

_______________________________________________________________

08. See You

Intro
e||----3----||
B||----2----||
G||----2----||
D||----2----||
A||----0----||
E||---------||


Verse
e||--1----0----3----1----0----3--||
B||--1----0----2----1----0----2--||
G||--2----1----2----2----1----2--||
D||--3----2----2----3----2----2--||
A||--3----2----0----3----2----0--||
E||--1----0---------1----0-------||


Chorus
e||--3----2---3---2---3---2---1-------1---0----3--||
B||--2----3---2---3---2---3---1---2---1---0----2--||
G||--2----2---2---2---2---2---2---2---2---1----2--||
D||--2----0---2---0---2---0---3---2---3---2----2--||
A||--0--------0-------0-------3---0---3---2----0--||
E||---------------------------1-------1---0-------||


Bridge
e||--3------3------5------6------3-----1-----0-------3--||
B||--3------3------5------6------3-----1-----0-------2--||
G||--4------4------5------7------4-----2-----1-------2--||
D||--5------5------7------8------5-----3-----2-------2--||
A||--5------5------7------8------5-----3-----2-------0--||
E||--3------3------5------6------3-----1-----0----------||

___________________________________________________________

09. Enough Space

Intro                  Pre-chorus
e||--3----3----3----3-|-3-3-3-3-3-3-----5-------||
B||--3----3----3----3-|-3-3-3-3-3-3-3-5---5-----||
G||--0----0----0----0-|-0-0-0-0-0-0-------------||
D||-------------------|-------------------------||
A||-------------------|-------------------------||
E||-------------------|-------------------------||
                      (3x)
 

Chorus
e||--------------------||
B||--------------------||
G||------5-6-----------||
D||--5---5-6--6-7-7-7--||
A||--5---3-4--6-7-7-7--||
E||--3--------4-5-5-5--||


Bridge
e||----------------|----------------------------------------------------------||
B||----------------|----------------------------------------------------------||
G||----------------|----------------------------------------------------------||
D||--4-4---4-x-x-x-|-8-8-8-8-10-10-10-8-8-8-8-10-10-10-8-8-8-8-10-8-10-11-11--||
A||--4-4---4-x-x-x-|----------------------------------------------------------||
E||--2-2-0-2-x-x-x-|----------------------------------------------------------||
  (4x)

____________________________________________________________________________

10. February Stars

e||--5--5---5-----5----3-3---7-7-7---3-3--7-7----5---5------|
B||--8----8-7---7---7--5--5--8----8--5--5-8--8---7-7---7----|
G||--7------7-7------7-4-----7-----7-4----7---7--7-------7--|
D||--0------0----------0-----0-------0----0------0----------|
A||---------------------------------------------------------|
D||---------------------------------------------------------|
        hangin on...

e|--2--2---2-----------0----------2-0------------2-0-------|
B|--3----3---3-------3---3------3-----3--------3-----3-----|
G|--4-----------4--4-------4---4---------4-4--4---------4--|
D|---------------------------------------------------------|
A|---------------------------------------------------------|
D|---------------------------------------------------------|
        one day youll have enough to give more

e|------3-3-3---------0---0-------2-0-----------2-0---0--||
B|----3---3----3--------3---3----3----4-------3----3--3--||
G|--4------------4--4---------4-4-------4-4-4-------4-2--||
D|-------------------------------------------------------||
A|-------------------------------------------------------||
D|-------------------------------------------------------||
         I'll wait to hear you final call

e||------------------------------------------------|
B||------------------------------------------------|
G||-----------------------7--7--7------------------|
D||--5-4--2-0---5--5------7--7--7------4--4--4--4--|
A||--5-4--2-0---5--5------5--5--5------4--4--4--4--|
D||--5-4--2-0---5--5-------------------4--4--4--4--|
   february stars         floating in the dark 

e|--------------------------------------------||
B|--------------------------------------------|| (3x)
G|--------------9-9-9--9----12--12--12-12-----||
D|--5---5-------9-9-9--9----12--12--12-12--0--||
A|--5---5-------7-7-7--7----10--10--10-10--0--||
D|--5---5----------------------------------0--||
   temporary 'scar'?       february stars 

Outro
e||---------------------------||
B||---------------------------||
G||---------------------------||
D||--5-5-5-5-5-5-5-5-5-----0--||
A||--5-5-5-5-5-5-5-5-5-----0--||
D||--5-5-5-5-5-5-5-5-5-----0--||

____________________________________________________________________

11. Everlong


Intro
(Gtr. 1 - Clean)
e||---------------------------------------------------------------------------------------|
B||---------------------------------------------------------------------------------------|
G||--11-11-11-11-11-11-11-11-11-11-11-11-11-11--11-11-11-11-11-11-11-11-11-11-11-11-11-11-|
D||--11-11-11-11-11-11-11-11-11-11-11-11-11-11--11-11-11-11-11-11-11-11-11-11-11-11-11-11-|
A||---9--9--9--9--9--9--9--9--9--9--9--9--9--9---9--9--9--9--9--9--9--9--9--9--9--9--9--9-|
D||---0--0--0--0--0--0--0--0--0--0--0--0--0--0---9--9--9--9--9--9--9--9--9--9--9--9--9--9-|

e|------------------------------------------||
B|------------------------------------------||
G|-7-7-7-7-7-7--11-11-11-11-11-11-11-11-11--||
D|-7-7-7-7-7-7--11-11-11-11-11-11-11-11-11--||
A|-5-5-5-5-5-5---9--9--9--9--9--9--9--9--9--||
D|-5-5-5-5-5-5---9--9--9--9--9--9--9--9--9--||

(Gtr. 2 - Once clean in the background then distortion)
e||------------------------------------------------------------------------------||
B||------------------------------------------------------------------------------||
G||--11----11-11-11----11-11-7----7-7-11-11-11-11-11-11-11-11-11-11-11-11-11-11--||
D||--11----11-11-11----11-11-7----7-7-11-11-11-11-11-11-11-11-11-11-11-11-11-11--||
A||---9-----9--9--9-----9--9-5----5-5--9--9--9--9--9--9--9--9--9--9--9--9--9--9--||
D||---0-----0--0--9-----9--9-5----5-5--9--9--9--9--9--9--9--9--9--9--9--9--9--9--||


Verse
(Gtr. 1)
e||---------------------------------------------------------------------------------------|
B||---------------------------------------------------------------------------------------|
G||--11-11-11-11-11-11-11-11-11-11-11-11-11-11--11-11-11-11-11-11-11-11-11-11-11-11-11-11-|
D||--11-11-11-11-11-11-11-11-11-11-11-11-11-11--11-11-11-11-11-11-11-11-11-11-11-11-11-11-|
A||---9--9--9--9--9--9--9--9--9--9--9--9--9--9---9--9--9--9--9--9--9--9--9--9--9--9--9--9-|
D||---0--0--0--0--0--0--0--0--0--0--0--0--0--0---9--9--9--9--9--9--9--9--9--9--9--9--9--9-|

e|------------------------------------------||
B|------------------------------------------||
G|-7-7-7-7-7-7--11-11-11-11-11-11-11-11-11--||
D|-7-7-7-7-7-7--11-11-11-11-11-11-11-11-11--||
A|-5-5-5-5-5-5---9--9--9--9--9--9--9--9--9--||
D|-5-5-5-5-5-5---9--9--9--9--9--9--9--9--9--||

(Gtr. 2)
e||-----------------|---------|-----------------||
B||-----------------|---------|-----------------||
G||---9--9--9-11--9-|-7-7-7-7-|--9--9--9-11--9--||
D||--11-11-11-11-11-|-7-7-7-7-|-11-11-11-11-11--||
A||---9--9--9--9--9-|-5-5-5-5-|--9--9--9--9--9--||
D||-----------------|---------|-----------------||
  (4x)                        (2x)

(Gtr. 2)
e||----------------------------------------------------------------------------|
B||----------------------------------------------------------------------------|
G||------11-11---11---11---11-11-11------11-11---11---11---11-11-11------7-7-7-|
D||------11-11---11---11---11-11-11------11-11---11---11---11-11-11------7-7-7-|
A||-------9--9----9----9----9--9--9-------9--9----9----9----9--9--9------5-5-5-|
D||--0-0-------0----0----0--0--0--0--9-9-------9----9----9--9--9--9--5-5-5-5-5-|

---------------------------------||
---------------------------------||
-----11-11---11---11---11-11-11--||
-----11-11---11---11---11-11-11--||
------9--9----9----9----9--9--9--||
-9-9-------9----9----9--9--9--9--||

Pre-Chorus (The third time you don't play the last chords you jump to the first chorus chord)
(Gtr. 1)
e||--------------------------------------------------||
B||--------------------------------------------------||
G||--------------------------------------------------||
D||--0-0-0--0-0-0--0-0-0--0-0-0-0--0--0--7-7-7--7-7--||
A||--4-4-4--5-5-5--7-7-7--9-9-9-9h10-10--7-7-7--7-7--||
D||--------------------------------------7-7-7--7-7--||
  (3x)

(Gtr. 2)
e||------------------------------------------------------||
B||------------------------------------------------------||
G||--6-6-6--7-7-7--9-9-9--11-11-11-11h12-12--------------||
D||--x-x-x--x-x-x--x-x-x---x--x--x--x--x--x--7-7-7--7-7--||
A||--4-4-4--5-5-5--7-7-7---9--9--9--9h10-10--7-7-7--7-7--||
E||------------------------------------------7-7-7--7-7--||
  (3x)

Chorus
(Gtr. 1)
e||----------------------------------------------------------------------------------|
B||----------------------------------------------------------------------------------|
G||--11-11--11-11-11-11-11-11-11-11-11-11-11--7-7-7-7-7-7-7-7-7-7--7-7-7-7-7-7-7-7-7-|
D||--11-11--11-11-11-11-11-11-11-11-11-11-11--7-7-7-7-7-7-7-7-7-7--7-7-7-7-7-7-7-7-7-|
A||---9--9---9--9--9--9--9--9--9--9--9--9--9--5-5-5-5-5-5-5-5-5-5--5-5-5-5-5-5-5-5-5-|
D||---9--9---9--9--9--9--9--9--9--9--9--9--9--5-5-5-5-5-5-5-5-5-5--0-0-0-0-0-0-0-0-0-|
  (3x)

e|---------------------------||
B|---------------------------||
G|---------------------------||
D|-7-7-7-7-7--5-5-5-5-5-5-5--||
A|-7-7-7-7-7--5-5-5-5-5-5-5--||
D|-7-7-7-7-7--5-5-5-5-5-5-5--||

(Gtr. 2)
e||--------------------------------------------------------------------|
B||--------------------------------------------------------------------| 
G||--------------------------------------------------7-7-7-7-7-7-7-7-7-| 
D||--9-9-9-9-9-9-9-9-9-9-9-9-9--5-5-5-5-5-5-5-5-5-5--7-7-7-7-7-7-7-7-7-|
A||--9-9-9-9-9-9-9-9-9-9-9-9-9--5-5-5-5-5-5-5-5-5-5--5-5-5-5-5-5-5-5-5-|
D||--9-9-9-9-9-9-9-9-9-9-9-9-9--5-5-5-5-5-5-5-5-5-5--------------------|
  (3x)

e|------------------------------||
B|------------------------------||
G|---------------------------7--||
D|-9-9-9-9-9--5-5-5-5-5-5-5--7--||
A|-9-9-9-9-9--5-5-5-5-5-5-5--5--||
D|-9-9-9-9-9--5-5-5-5-5-5-5-----||


After-Chorus
(Gtr. 2)
e||-----------------------------|---------|-----------------------------||
B||-----------------------------|---------|-----------------------------||
G||---9--9--9--9--9--9--9-11--9-|-7-7-7-7-|--9--9--9--9--9--9--9-11--9--||
D||--11-11-11-11-11-11-11-11-11-|-7-7-7-7-|-11-11-11-11-11-11-11-11-11--||
A||---9--9--9--9--9--9--9--9--9-|-5-5-5-5-|--9--9--9--9--9--9--9--9--9--||
D||-----------------------------|---------|-----------------------------||
  (2x)


Bridge
(Play Intro)


Pre-Chorus 3
(Gtr. 1)
e||------------------------------------------|----------------------------------------||
B||------------------------------------------|----------------------------------------||
G||------------------------------------------|----------------------------------------||
D||--11-11-11--9-9-9--7-7-7------------------|-11-11-11--9-9-9--7-7-7--9-9-9-9h11-11--||
A||--------------------------10-10-10-9h10-9-|----------------------------------------||
D||------------------------------------------|----------------------------------------||

(Gtr. 2)
e||------------------------------------------||
B||------------------------------------------||
G||--6-6-6--7-7-7--9-9-9--11-11-11-11h12-12--||
D||--x-x-x--x-x-x--x-x-x---x--x--x--x--x--x--||
A||--4-4-4--5-5-5--7-7-7---9--9--9--9h10-10--||
D||------------------------------------------||


Outro
e||----------------------------------------------------------------||
B||----------------------------------------------------------------||
G||----------------------------------------------------------------||
D||------5------5------5------5------5------5------5----5-5-----5--||
A||------5------5------5------5------5------5------5----5-5-----5--||
D||--5-5----5-5----5-5----5-5----5-5----5-5----5-5----5------5--5--||

_______________________________________________________________________

12. Walking After You

Intro/Fill 1
(Gtr. 1)
   E
e|-0------||-0----------|
B|--0-----||---0---0----|
G|---1----||-----1------| (Upstroke on the E)
D|----2---||----------2-|
A|-----2--||----------2-|
E|------0-||----------0-|

(Gtr. 2)
N.C. 
e|-0---2---4---0---5---4---2---0---4-|
B|---0---0---0---0---0---0---0---0---|
G|-1---2---4---1---6---4---2---1---4-|
D|-----------------------------------|
A|-----------------------------------|
E|-----------------------------------|


Verse
   E    E5/G#    A  Bbdim     A  B7(add E) 
e|-0------0------0----0-------0----0-|
B|-0------0------2----2-------2----0-|
G|-1------4------2----3-------2----2-|
D|-2------2------2----2-------2----1-|
A|-2------x------0----1-------0----2-|
E|-0------4--------------------------|
  "Tonight I'm tangled in my [...]"

Fill 2
(Gtr. 1)
   E
e|-0-|
B|-0-|
G|-1-|
D|-2-|
A|-2-|
E|-0-|

(Gtr. 2)
N.C. 
e|-0---2---4---0---5---4---2---0---|
B|---0---0---0---0---0---0---0---0-|
G|-1---2---4---1---6---4---2---1---|
D|---------------------------------|
A|---------------------------------|
E|---------------------------------|


Chorus 1
  F#7(add B) Asus2     E 
e|-0-----------0-------0-|
B|-0-----------0-------0-|
G|-3-----------2-------1-|
D|-4-----------2-------2-|
A|-4-----------0-------2-|
E|-2-------------------0-|
  "If you walk out on me [...]"


Chorus 2 
   C#m   Asus2 F#7(add B) 
e|-(0)-----0-------0-|
B|--5------0-------0-|
G|--6------2-------3-|
D|--6------2-------4-|
A|--4------0-------4-|
E|-----------------2-|
  "Another heart is cracked [...]"


Interlude
(Gtr. 1)
   E
e|-0-|
B|-0-|
G|-1-|
D|-2-|
A|-2-|
E|-0-|

(Gtr. 2)
N.C. 
e|-0---2---4---0---5---4---2---0---|
B|---0---0---0---0---0---0---0---0-|
G|-1---2---4---1---6---4---2---1---|
D|---------------------------------|
A|---------------------------------|
E|---------------------------------|

e|-0---2---4---0---5---4---2---0---|
B|---0---0---0---0---0---0---0---0-|
G|-1---2---4---1---6---4---2---1---|
D|---------------------------------|
A|---------------------------------|
E|---------------------------------|

e|-0---2---4---0---5---4---2---0---2-----2-----2-----2---2-|
B|---0---0---0---0---0---0---0---0-----0-----0-----0-------|
G|-1---2---4---1---6---4---2---1---3-3-----3-----3-----3---|
D|---------------------------------------------------------|
A|---------------------------------------------------------|
E|---------------------------------------------------------|

________________________________________________________________

13. New Way Home


Intro/Post-Chorus
e||-------------------------------------------------||
B||--2222222222222222-------------------------------||
G||--2222222222222222----------4-4-6-6-7-7-7-7-7-7--||
D||--2222222222222222--4-4-7-7-x-x-x-x-x-x-x-x-x-x--||
A||--0000000000000000--x-x-x-x-2-2-4-4-5-5-5-5-5-5--||
E||--------------------2-2-5-5----------------------||


Verse
e||------------------------------------------||
B||--222-2-22-2-22-2-22----------------------||
G||--222-2-22-2-22-2-22--333-3-33-3-33-3-33--||
D||--222-2-22-2-22-2-22--444-4-44-4-44-4-44--||
A||--000-0-00-0-00-0-00--444-4-44-4-44-4-44--||
E||----------------------222-2-22-2-22-2-22--||

e||----------------------222-2-22-2-22-2-22--||
B||----------------------333-3-33-3-33-3-33--||
G||--444-4-44-4-44-4-44--222-2-22-2-22-2-22--||
D||--555-5-55-5-55-5-55--000-0-00-0-00-0-00--||
A||--555-5-55-5-55-5-55----------------------||
E||--333-3-33-3-33-3-33----------------------||


Chorus
e||-----------3-33-333-5-55-555-333333---33333333--||
B||--2-222222-1-11-111-3-33-333-000000-2-11111111--||
G||--2-222222-2-22-222-4-44-444-000000-2-22222222--||
D||--2-222222-3-33-333-5-55-555-000000-2-33333333--||
A||--0-000000-0-00-000-0-00-000-xxxxxx-0-00000000--||
E||-----------------------------333333-------------||


Bridge
e||--0-00--0-000-000000-0-00--0-000-020000--||
B||--2-22--0-000-000000-2-22--0-000-000000--||
G||--2-22--2-222-222222-2-22--2-222-222222--||
D||--2-22--2-222-222222-2-22--2-222-222222--||
A||--0-00--1-111-111111-0-00--1-111-111111--||
E||--------0-000-000000-------0-000-000000--||

e||--0-00--0-00------------33333333--||
B||--2-22--0-00------------00000000--||
G||--2-22--1-11--3-33-3333-00000000--||
D||--2-22--2-22--4-44-4444-00000000--||
A||--0-00--2-22--4-44-4444-xxxxxxxx--||
E||--------0-00--2-22-2222-33333333--||

e||--0-00--0-000-000000-0-00--0-000-020000--||
B||--2-22--0-000-000000-2-22--0-000-000000--||
G||--2-22--2-222-222222-2-22--2-222-222222--||
D||--2-22--2-222-222222-2-22--2-222-222222--||
A||--0-00--1-111-111111-0-00--1-111-111111--||
E||--------0-000-000000-------0-000-000000--||

e||-----------33333333--||
B||-----------00000000--||
G||--33333333-00000000--||
D||--44444444-00000000--||
A||--44444444-xxxxxxxx--||
E||--22222222-33333333--||


Interlude (Part 1) - (Palm-muted)
e||-------------------------------------------------||
B||--------------------33333333---------------------||
G||--22222222-33333333-22222222--------22-----------||
D||--22222222-33333333-00000000-555555-22-33333333--||
A||--00000000-33333333----------555555-00-33333333--||
E||-----------11111111----------333333----11111111--||

Interlude (Part 2)
e||------0-------------8--------------5------------10----------8-------||
B||----2---2-----10------10-------7-----7------12----12-----10---10----||
G||--2--------10----10------10--7---7-----7--12--12----12-10-------10--||
D||--------------------------------------------------------------------||
A||--------------------------------------------------------------------||
E||--------------------------------------------------------------------||

Interlude (Part 3)
e||-----------3-33-333-5-55-555-333333---33333333--||
B||--2-222222-1-11-111-3-33-333-000000-2-11111111--||
G||--2-222222-2-22-222-4-44-444-000000-2-22222222--||
D||--2-222222-3-33-333-5-55-555-000000-2-33333333--||
A||--0-000000-0-00-000-0-00-000-xxxxxx-0-00000000--||
E||-----------------------------333333-------------||


Outro 
e||--------------------------------|--------------------------------||
B||--------------3------3------1---|-------------3------3--------1--||
G||--6-4-2-5-4-2----2-----4------2-|-6-4-2-5-4-2----2-----4----2----||
D||---------------4---5------3-----|--------------4---5------3------||
A||--------------------------------|--------------------------------||
E||--------------------------------|--------------------------------||

_________________________________________________________________________

That's it! Hope this tab helps!
comments
print report bad tab
6 comments total. Showing first comments.
0 reply
Flyckten wrote on July 5 2005, 12:00 am

Nice work tabbin out the whole album! FF rocks \m/

0 reply
grape_moosha wrote on July 24 2005, 12:00 am

some parts supposed to be in drop d if not all of it??

0 reply
grape_moosha wrote on July 24 2005, 12:00 am

i had a look through and monkey wrench and hey johnny park should be drop D but the rest is correct GREAT JOB

I want to post or [tab]
guest
You may want to rate the tab now too:
select rating
Please do not post tabs as comments. Select "correction" instead!