Oops, an error
Loading. Please wait.

There Is Nothing Left To Lose Tab

22,633 views 30 this week
5 commentsread comments
1 2 3 4 5
accurate
x 7
Autoscroll
+/-
esc
set tempo
stop
Hey! There's an official Ultimate Guitar app which is ideal
for learning songs when you're away from computer. Get the app
WARNING: You are trying to view
                                    content from Ultimate-Guitar.com
                                    in an unauthorized application,
                                    which is prohibited.

                                    Please use an official Ultimate
                                    Guitar Tabs application for iPhone,
                                    iPad or Android to access legitimate
                                    chords, guitar, bass, and drum tabs
                                    from Ultimate-Guitar.com database.

                                    Type "ultimate guitar tabs" in Apple
                                    App Store's or Android Market's
                                    search to find the application.
Hey everyone, i hope your doing well,this is the whole TINLTL album in tabs,enjoy

Tabbed by=JCB
Album="There is nothing left to lose"


Foo Fighters - Stacked Actors
(Drop A Tuning)


Intro/Chorus
e||--------------------------------------------------------------------------||
B||--------------------------------------------------------------------------||
G||------------------------------------------------------<4>-<4>-------------||
D||------------------------------------------------------<4>-<4>-------------||
A||--0-0--3-5-5-3--3/10-10--3-5-5-3--3/-8-8--1/6-6-5-3-0---------0--6-6-5-3--||
A||--0-0--3-5-5-3--3/10-10--3-5-5-3--3/-8-8--1/6-6-5-3-0---------0--6-6-5-3--||


Verse
(Gtr. 1)
e||--------------------|------------------||
B||--1-1-1-1/3-3-1-1-1-|-1-1-1-4-4-3-1-1--||
G||--0-0-0-0/0-0-0-0-0-|-0-0-0-0-0-0-0-0--||
D||--2-2-2-2/4-4-2-2-2-|-2-2-2-5-5-4-2-2--||
A||--0-0-0-3/5-5-3-0-0-|-0-0-0-6-6-5-3-0--||
A||--------------------|------------------||
  (3x)                 (1x)

(Gtr. 2, w/delay)
e||--------------------------------||
B||--1===========================--||
G||--0===========================--||
D||--2===========================--||
A||--0===========================--||
A||--------------------------------||


Pre-Chorus (Gtr. 1, play verse faster)
e||----------------------------------------||
B||----------------------------------------||
G||----------------------------------------||
D||----------------------------------------||
A||----------------------------------------||
A||--0-------0-------0----0----0--0--0--0--||


Solo (After first verse)
e||---------------------------------------------------||
B||-------------8-7-8-7-5-----------------------------||
G||--7b8b7-5------------------7b8b7-5--------4b5b4b5--||
D||----------7------------5-7---------7--5-7----------||
A||---------------------------------------------------||
A||---------------------------------------------------||


Solo (*Vibrato is caused by bending the string up and down very quick)
e|---------------------------------------------------------------------|
B|---------------------------------------------------------------------|
G|---------------------------------------------------------------------|
D|---------------------------------------------------------------------|
A|---------------------------------------------------------------------|
A|--0---0-3-5-5-5p3--0---0-3-5-5-5p3--0---0-3-5-5-5p3--6-6-5-3-6-6-5-3-|

                             (See top)  *Vibrato~~~~~~~~~~~~~~
e|------------------------------------------------------------|
B|------------------------------------------------------------|
G|----------------------5---5---5-7-7b8b7-7-5-7-~~~~~~~~~~~~~-|
D|-5-5-5-5-5/4-4-4-4--7---7---7-------------------------------|
A|------------------------------------------------------------|
A|------------------------------------------------------------|

e|-------------------------------------------------|
B|-------------------------------------------------|
G|-----------------------------------5-----------5-|
D|-7\5-5\4-4\2-7\5-5\4-4\2-7\5-5\4-4---7\5-5\4-4---|
A|-------------------------------------------------|
A|-------------------------------------------------|

e|--------------------------------------------------------------------|
B|--------------------------------------------------------------------|
G|-----------------------5-----6-6-6-5/6-6-6-5/6-6-6-5/6-6-6-5/6-6-6--|
D|-7\5-5\4-4\2-7\5-5\4-4---4/5-------4/5-5-5-4/5-5-5-4/5-5-5-4/5-5-5--|
A|--------------------------------------------------------------------|
A|--------------------------------------------------------------------|

___________________________
Foo Fighters - Breakout
(Normal Tuning)


Intro
     B       E5     C#5       C5
e||--0-------0-------0--------0---||
B||--0-------0-------0--------0---||
G||--8-------9-------10-------9---||
D||--9-------9-------11-------10--||
A||--9-------7-------11-------10--||
E||--7-------7-------9--------8---||
You make me dizzy, running circles in my head
One of these days I'll chase you down
Well look whose going crazy now
We're face to face my friend
Better get ou-ou-out
Better get out


Chorus
     B5  G   B5  E  F#5 G A Em7 G A Em7
e||------3-------0------3---3---3---3--||
B||------3-------0------3-2-3---3-2-3--||
G||--4---0---4---1------0-2-0---0-2-0--|| (2x)
D||--4---0---4---2---4--0-2-2---0-2-2--||
A||--2---2---2---2---4--2-0-2---2-0-2--||
E||------3-------0---2--3---0---3---0--||
You know you make me break out, make me break out
I don't want to look like that
I don't want to look like that
You know you make me break out, make me break out
I don't want to look like that
I don't want to look like that, you know you make me break out


Bridge 1
(Gtr. 1)
    B5               Em7
e||-------------------3--||
B||-------------------3--||
G||--4----------------0--||
D||--4----------------2--||
A||--2----------------2--||
E||-------------------0--||

(Gtr. 2)
e||-----------------------------------------------------------------------------------||
B||-----------------------------------------------------------------------------------||
G||--44444---11-11-11----11/-12---12--12--12--12----11--11-----9--9--9--9--9--9/-11\--||
D||--xxxxx----x--x--x-----x/--x----x---x---x---x-----x---x-----x--x--x--x--x--x/--x\--||
A||--22222----9--9--9-----9/-10---10--10--10--10-----9---9-----7--7--7--7--7--7/--9\--||
E||-----------------------------------------------------------------------------------||
You can see this on my face, It's all for you 
The more and more I take, I break right through


     G5               E5
e||----------------------||
B||----------------------||
G||----------------------||
D||--5----------------2--||
A||--5----------------2--||
E||--3----------------0--||
Therapy still scares me,
Putting me on my back again


     B       E5     C#5       C5
e||--0-------0-------0--------0---||
B||--0-------0-------0--------0---||
G||--8-------9-------10-------9---|| (2x)
D||--9-------9-------11-------10--||
A||--9-------7-------11-------10--||
E||--7---------------9--------8---||
I may be crazy, little frayed around the ends
One of these days I'll phase you out


e||-------------------------------------------------------------------------||
B||-------------------------------------------------------------------------||
G||----------9xx9-9--------------------------------9xx9-9-------------------||
D||--9xx9-9xx9xx9-9xx11xx11-11xx10xx10-10xx9xx9-9xx9xx9-9--xx11--11-11xx10--||
A||--9xx9-9xx7xx7-7xx11xx11-11xx10xx10-10xx9xx9-9xx7xx7-7--xx11xx11-11xx-8--||
E||--7xx7-7xx7xx7-7xx-9xx-9--9xx-8xx-8--8xx7xx7-7xx7xx7-7--xx-9xx-9--9xx-8--||
Burn it in the blast off, burn it in the blast off, watching me crawl away
Try to get out, try to get out


Pre-Chorus
e||-----------------------------||
B||--0-0-0-0----0---0---0---0---||
G||--4-4-4-4b5-(5)-(5)-(5)-(5)--||
D||-----------------------------||
A||-----------------------------||
E||-----------------------------||


Bridge 2 (coda)
e||-------------------||
B||-------------------||
G||--4-4-2-2-6-6-9-9--||
D||--4-4-2-2-6-6-9-9--||
A||--2-2-0-0-4-4-7-7--||
E||-------------------||
Break out! Break out!
Go, go, go!

Make me break out..
Yeah!

___________________________
Foo Fighters - Learn To Fly
(Normal Tuning)


Intro\Chorus
(Gtr. 1)
     Bsus2         F#m             E
e||-------------------------------------------------------------||
B||-------------------------------------------------------------||
G||--4-4-4-4-4-4-4/6-6-6-6-6h7r6-6\4-4-4-4-4-4-4-4-4-4-4-4-4-4--||
D||--x-x-x-x-x-x-x/x-x-x-x-x-x-x-x\x-x-x-x-x-x-x-x-x-x-x-x-x-x--||
A||--2-2-2-2-2-2-2/4-4-4-4-4h5r4-4\2-2-2-2-2-2-2-2-2-2-2-2-2-2--||
E||-------------------------------------------------------------||

(Gtr. 2)
     B4          F#m         E
e||--0-0-0-0-0-0-0-0-0-0-0-0-0-0-0-0-0-0-0-0-0-0-0-0--||
B||--0-0-0-0-0-0-0-0-0-0-0-0-0-0-0-0-0-0-0-0-0-0-0-0--||
G||--4-4-4-4-4-4-2-2-2-2-2-2-1-1-1-1-1-1-1-1-1-1-1-1--||
D||--4-4-4-4-4-4-4-4-4-4-4-4-2-2-2-2-2-2-2-2-2-2-2-2--||
A||--2-2-2-2-2-2-4-4-4-4-4-4-2-2-2-2-2-2-2-2-2-2-2-2--||
E||--------------------------0-0-0-0-0-0-0-0-0-0-0-0--||


Verse
     Bsus2      F#m          E
e||-------2------------0------------0------------0--||
B||-------2------------0------------0------------0--||
G||---4-----------2---------------------------------||
D||-----4------------4---------2------------2-------||
A||--2----------4-----------------2------------2----||
E||--------------------------0------------0---------||


Interlude
     G               A               E
e||--0-0-0-0-0-0-0-0/0-0-0-0-0-0-0-0-0--0--0--0--0--||
B||--0-0-0-0-0-0-0-0/0-0-0-0-0-0-0-0-0--0--0--0--0--||
G||--4-4-4-4-4-4-4-4/6-6-6-6-6-6-6-6-1--1--1--1--1--||
D||--5-5-5-5-5-5-5-5/7-7-7-7-7-7-7-7-2--2--2--2--2--||
A||--5-5-5-5-5-5-5-5/7-7-7-7-7-7-7-7-2--2--2--2--2--||
E||--3-3-3-3-3-3-3-3/5-5-5-5-5-5-5-5-0--0--0--0--0--||
    "Make my way back home when i learn to fly."


Bridge
     B            G          D          E               G               A
e||--0-0-0-0-0-0--0-0-0-0-0--0-0-0-0-0--0-0-0-0-0-0-0-|-0-0-0-0-0-0-0-0/0-0-0-0-0-0-0-0--||
B||--0-0-0-0-0-0--0-0-0-0-0--0-0-0-0-0--0-0-0-0-0-0-0-|-0-0-0-0-0-0-0-0/0-0-0-0-0-0-0-0--||
G||--4-4-4-4-4-4--4-4-4-4-4--7-7-7-7-7--1-1-1-1-1-1-1-|-4-4-4-4-4-4-4-4/6-6-6-6-6-6-6-6--||
D||--4-4-4-4-4-4--5-5-5-5-5--7-7-7-7-7--2-2-2-2-2-2-2-|-5-5-5-5-5-5-5-5/7-7-7-7-7-7-7-7--||
A||--2-2-2-2-2-2--5-5-5-5-5--5-5-5-5-5--2-2-2-2-2-2-2-|-5-5-5-5-5-5-5-5/7-7-7-7-7-7-7-7--||
E||---------------3-3-3-3-3-------------0-0-0-0-0-0-0-|-3-3-3-3-3-3-3-3/5-5-5-5-5-5-5-5--||
    "Fly along with me, i can't quite make it alone."  "Try and make this life my own."


Outro
e||-----------2---|---------2--||
B||-------------2-|-----4---2--||
G||-----4---------|-4---4---4--||
D||--------4------|-4---2---4--||
A||--2------------|-2-------2--||
E||---------------|------------||
  (4x)

___________________________
i've already Tabbed "Gimmie stitches" just look it up.
___________________________
Foo Fighters - Generator
(Normal Tuning)


Intro
   (Gtr. 1) (w/Talk Box)
e||------------------|---------------------|---------------------||
B||------------------|---------------------|---------------------||
G||------------------|---------------------|---------------------||
D||--6-6-4-2-4-2-4/6-|-6-6-4-2-4-2-4/6/4/2-|-6-6-4-2-4-2-4/6/4/2-||
A||------------------|---------------------|---------------------||
E||------------------|---------------------|---------------------||
 |
 | (Gtr. 2)
e||------------------|---------------------|---------------------||
B||------------------|---------------------|---------------------||
G||------------------|-2-------------------|-2-2-2-2-2-2-2-2-----||
D||------------------|-2-------------------|-2-2-2-2-2-2-2-2-2-2-||
A||--------------2-2-|-0-------------------|-0-0-0-0-0-0-0-0-2-2-||
E||--------------0-0-|---------------------|-----------------0-0-||

   (Gtr. 1)
e||---------------------|---------------------|---------------------||
B||---------------------|---------------------|---------------------||
G||---------4--6--------|---------------------|----------4-6--------||
D||-6-6-6-7-------6--7--|-6-6-4-2-4-2-4/6/4/2-|--6-6-6-7-----6--7---||
A||---------------------|---------------------|---------------------||
E||---------------------|---------------------|---------------------||
 |
 | (Gtr. 2)
e||---------------------|---------------------|---------------------||
B||---------------------|---------------------|---------------------||
G||---------------------|-2-2-2-2-2-2-2-2-----|-----------7-7-7-7-7-||
D||-4-4-4-4-4-4-4-4-2-2-|-2-2-2-2-2-2-2-2-2-2-|-4-4-4-4-4-7-7-7-7-7-||
A||-4-4-4-4-4-4-4-4-2-2-|-0-0-0-0-0-0-0-0-2-2-|-4-4-4-4-4-5-5-5-5-5-||
E||-2-2-2-2-2-2-2-2-0-0-|-----------------0-0-|-2-2-2-2-2-----------||


Verse Riff 1st time
   (Gtr. 1) - (light use of voice box or wah)
e||-----------------------------------------||
B||-----------------------------------------||
G||---1---1---1---1---1---1---1---1---1---1-||
D||-----------------------------------------||
A||-0---0---0---0---------------------------||
E||-----------------0---2---2---2---2---0---||
 |
 | (Gtr. 2) - (w/dist but quiet)
e||-----------------------------------------||
B||-----------------------------------------||
G||-2---------------------------------------||
D||-2---------------2-2-4---------------2-2-||
A||-0---------------2-2-4---------------2-2-||
E||-----------------0-0-2---------------0-0-||

   (Gtr. 1)
e||---------------------------------------------||
B||---------------------------------------------||
G||---2---2---1---1---1-----------------0---0h2-||
D||-0---0---0---0---0-----3---3---3---3---------||
A||---------------------5---5---5---5-----3-----||
E||---------------------------------------------||
 |
 | (Gtr. 2)
e||----------------------------------------------||
B||----------------------------------------------||
G||-------5--------------------------------------||
D||---3------------------------------------------||
A||-5---5----------------------------------------||
E||----------------------------------------------||

Verse riff rest of the time
   (Gtr. 1)
e||-----------------------------------------||
B||-----------------------------------------||
G||---1---1---1---1---1---1---1---1---1---1-||
D||-----------------------------------------||
A||-0---0---0---0---------------------------||
E||-----------------0---2---2---2---2---0---||
 |
 | (Gtr. 2)
e||-----------------------------------------||
B||-----------------------------------------||
G||-2---------------------------------------||
D||-2---------------2-2-4---------------2-2-||
A||-0---------------2-2-4---------------2-2-||
E||-----------------0-0-2---------------0-0-||

   (Gtr. 1)
e||-------------------------------------------------||
B||-------------------------------------------------||
G||---2---2---1---1---1-----6-4-6b7b6-a-6-4-6b7b6-4-||
D||-0---0---0---0---0-------------------------------||
A||-------------------------------------------------||
E||-------------------------------------------------||
 |
 | (Gtr. 2)
e||-------------------------------------------------||
B||-------------------------------------------------||
G||-2-----------------------------------------------||
D||-0-----------------------------------------------||
A||-------------------------------------------------||
E||-------------------------------------------------||


Chorus
   (Gtr. 1)
e||-------------------------------------------------------------||
B||-------------------------------------------------------------||
G||---2---2---2---2---2---2---2---2---2---2---2---2---2---2---2-||
D||-------------------------------------------------------------||
A||-0---0---0---0---0---0---0---0---0---0---0---0---0---0---0---||
E||-------------------------------------------------------------||
 |
 | (Gtr. 2)
e||-----------------------------------------------------------------||
B||-----------------------------------------------------------------||
G||-2-2-2-2-2-2-2-2-10-10-10-10-10-10-10-10-11-11-11-11-11-11-11-11-||
D||-2-2-2-2-2-2-2-2-------------------------------------------------||
A||-0-0-0-0-0-0-0-0-8--8--8--8--8--8--8--8--9--9--9--9--9--9--9--9--||
E||-----------------------------------------------------------------||

   (Gtr. 1)
e||-3-3-3-3-3-3-3-3-3-3-3-3-3-3-3-3-3-3-3-3-3-3--||
B||-3-3-3-3-3-3-3-3-3-3-3-3-3-3-3-3-3-3-3-3-3-3--||
G||-0-0-0-0-0-0-0-0-0-0-0-0-0-0-0-0-0-0-0-0-0-0--||
D||-0-0-0-0-0-0-0-0-0-0-0-0-0-0-0-0-0-0-0-0-0-0--||
A||-2-2-2-2-2-2-2-2-2-2-2-2-2-2-2-2-2-2-2-2-2-2--||
E||-3-3-3-3-3-3-3-3-3-3-3-3-3-3-3-3-3-3-3-3-3-3--||
 |
 | (Gtr. 2)
e||----------------------------------------------||
B||----------------------------------------------||
G||-12-12-12-12/14-14-14-14/16-16-16-16/18-18-18-||
D||----------------------------------------------||
A||-10-10-10-10/12-12-12-12/14-14-14-14/16-16-16-||
E||----------------------------------------------||

   (Gtr. 1)
e||----------------------------------------------------||
B||-7---7-----7-----7----7--6---6-----6----6-----6-----||
G||-6-6---6-----6-----6-----5-5---5-----5----5---------||
D||-7-------7-----7-----7---7-------7-----7----7---2-2-||
A||-5-----------------------5----------------------2-2-||
E||------------------------------------------------0-0-||
 |
 | (Gtr. 2)
e||----------------------------------------------------||
B||-7-----------------------6--------------------------||
G||-6-----------------------5--------------------------||
D||-7-----------------------7----------------------2-2-||
A||-5-----------------------5----------------------2-2-||
E||------------------------------------------------0-0-||


Bridge
   (Gtr. 1)
e||-0---0---0---0---0---0--||
B||-0---0---0---0---0---0--||
G||-9---9---9---9---9---9--||
D||-9---9---9---9---9---9--||
A||-7---7---7---7---7---7--||
E||-0---0---0---0---0---0--||
 |
 | (Gtr. 2)
e||--------------------------||
B||--------------------------||
G||-9-9-9--------------------|| (x4)
D||-9-9-9--------------------||
A||-7-7-7--------------------||
E||--------------------------||
 
   (Gtr. 1)
e||-0---0---0---0---0---0--||
B||-0---0---0---0---0---0--||
G||-9---9---9---9---9---9--||
D||-9---9---9---9---9---9--||
A||-7---7---7---7---7---7--||
E||-0---0---0---0---0---0--||
 |
 | (Gtr. 2)
e||-------------------------||
B||-------------------------||
G||-------------------------|| (x3)
D||-2-2-2-0-----------------||
A||----------4-2---0-2/4----||
E||--------------4-------0--||

   (Gtr. 1)
e||-0---0---0---0---0--0-0-0-||
B||-0---0---0---0---0--0-0-0-||
G||-9---9---9---9---9--9-9-9-||
D||-9---9---9---9---9--9-9-9-||
A||-7---7---7---7---7--7-7-7-||
E||-0---0---0---0---0--0-0-0-||
 |
 |  (Gtr. 2)
e||--------------------------||
B||--------------------------||
G||--------------------------||
D||-2-2-2-0------------------||
A||----------4-2---0-2/4-----||
E||--------------4-------0-0-||


Outro
   (Gtr. 1)
e||----------------------|-----------------------|| 
B||----------------------|-----------------------||
G||----------------------|--------------------2--|| 
D||--6-6-4-2-4-2-4/6/4/2-|-6-6-4-2-4-2-4/6/9--2--|| 
A||----------------------|--------------------0--||
E||----------------------|-----------------------||
 |
 | (Gtr. 2)
e||----------------------|-----------------------||
B||----------------------|-----------------------||
G||-2-2-2-2-2-2-2-2------|-2-2-2-2-2-2-2------2--||
D||-2-2-2-2-2-2-2-2-2-2--|-2-2-2-2-2-2-2-2-2--2--||
A||-0-0-0-0-0-0-0-0-2-2--|-0-0-0-0-0-0-0-2-2--0--||
E||-----------------0-0--|---------------0-0-----||

_____________________________________
I've already Tabbed "Aurora" 
_____________________________________
Foo Fighters - Live-In Skin
(Drop D Tuning)


Main Riff
e||----------------------------------|----------------------------------||
B||----------------------------------|----------------------------------||
G||----------------------------------|----------------------------------||
D||----------------------------------|----------------------------------||
A||------5-----5-----------------4-5-|-----5-----5--5-5-7-5-4-7-5--4-5--||
D||--0-5---0-4---0-2-2-0-0-2-0-0-----|-0-5---0-4------------------------||

____________________________________
Next Year - Foo Fighters
(Normal Tuning)
Album Version, used in Verse by Shifflet live)
e||------10-10-10--10-10----10-10-----3-3-3---3-3-3---3-||
b||-8----8--8--8---7--7-----7--7--x-1-1-1-1---1-1-1---1-||
g||-0-0--0--0--0---0--0--0--0--0--x-0-0-0-0---0-0-0---0-||
d||-9-9--9--9--9---9--9--9--9--9--x-2-2-2-0h2p0-0-0h2p0-||
a||---10-----------------10---------3-------------------||
e||-----------------------------------------------------||


Verse
   (Gtr. 1)
e||------10-10-10--10-10----10-10---3-3-3------------||
b||-8----8--8--8---7--7-----7--7--x-1-1-1------------||
g||-0-0--0--0--0---0--0--0--0--0--x-0-0-0-0---0---0--|| (2x)
d||-9-9--9--9--9---9--9--9--9--9--x-2-2-2-0h2-0-0-0--||
a||---10-----------------10---------3-3-3-------3----||
e||--------------------------------------------------||
 ||
 ||(Gtr. 2)
e||--------------------------------------------------||
b||-8--8--8--8--8--7-7-7-7-7-7-1-1-1-1-1-1-1-1-1-1-1-||
g||-0--0--0--0--0--0-0-0-0-0-0-0-0-0-0-0-0-0-0-0-0-0-|| (2x)
d||----------------------------2-2-2-2-2-2-2-2-2-2-2-||
a||-10-10-10-10-10-9-9-9-9-9-9-3-3-3-3-3-3-3-3-3-3-3-||
e||--------------------------------------------------||

   (Gtr. 1)
e||------10-10-10--10-10----10-10-----3-3-3-0-----0--||
b||-8----8--8--8---7--7-----7--7--x-1-1-1-1-2-----2--||
g||-0-0--0--0--0---0--0--0--0--0--x-0-0-0-0-0-----0--||
d||-9-9--9--9--9---9--9--9--9--9--x-2-2-2-2-2---2-2--||
a||---10-----------------10---------3-------0---0-0--||
e||--------------------------------------------------||
 ||
 ||(Gtr. 2)
e||-------------------------------------0-----0------||
b||-8--8--8--8--8--7-7-7-7-7-7-1-1-1-1--2-----2------||
g||-0--0--0--0--0--0-0-0-0-0-0-0-0-0-0--0-----0------||
d||----------------------------2-2-2-2--2---2-2------||
a||-10-10-10-10-10-9-9-9-9-9-9-3-3-3-3--0---0-0------||
e||--------------------------------------------------||

   (Gtr. 1)
e||-3-3-3-3-3-3-5-5-5-5-5-5-5-5-10-10-10-10-10-10-10-10-||
b||-1-1-1-1-1-1-3-3-3-3-3-3-3-3--8--8--8--8--8--8--8--8-||
g||-0-0-0-0-0-0-0-0-0-0-0-0-0-0--0--0--0--0--0--0--0--0-||
d||-2-2-2-2-2-2-4-4-4-4-4-4-4-4--9--9--9--9--9--9--9--9-||
a||-3-3-3-3-3-3-5-5-5-5-5-5-5-5-10-10-10-10-10-10-10-10-||
e||-----------------------------------------------------||
 ||
 ||(Gtr. 2)
e||-3-3-3-3-3-3-3-3-------------3-3-3-3-3-3-3-3-3-------||
b||-1-1-1-1-1-1-1-1---1---1---1-3-3-3-3-3-3-3-3-3-------||
g||-0-0-0-0-0-0-0-0-0-0-0-0-0-0-0-0-0-0-0-0-0-0-0-------||
d||-2-2-2-2-2-2-2-2-2-2-2-2-2-2-0-0-0-0-0-0-0-0-0-------||
a||-3-3-3-3-3-3-3-3-3-3-3-3-3-3-2-2-2-2-2-2-2-2-2-------||
e||-----------------------------3-3-3-3-3-3-3-3-3-------||


Chorus
   (Gtr. 1)
e||-3-3-3-3-3-3-3-3-3-10-10-10-10-10-10-10-10-10-||
b||-1-1-1-1-1-1-1-1-1--8--8--8--8--8--8--8--8--8-||
g||-0-0-0-0-0-0-0-0-0--0--0--0--0--0--0--0--0--0-|| (2x)
d||-2-2-2-2-2-2-2-2-2--9--9--9--9--9--9--9--9--9-||
a||-3-3-3-3-3-3-3-3-3-10-10-10-10-10-10-10-10-10-||
e||----------------------------------------------||
 ||
 ||(Gtr. 2)
e||-3-3-3-3-3-3-3-3-3-3-3-3-3-3-3-3-3-3-3--------||
b||-3-3-3-3-3-3-3-3-3-3-3-3-3-3-3-3-3-3-3--------||
g||-0-0-0-0-0-0-0-0-0-0-0-0-0-0-0-0-0-0-0--------|| (2x)
d||-2-2-2-2-2-2-2-2-2-0-0-0-0-0-0-0-0-0-0--------||
a||-3-3-3-3-3-3-3-3-3-2-2-2-2-2-2-2-2-2-2--------||
e||-------------------3-3-3-3-3-3-3-3-3-3--------||

   (Both Guitars)
e||-3-3-3-3-3-3-3-3-0-0-0-0-0-0-0-0--3-||
b||-1-1-1-1-1-1-1-1-3-3-3-3-3-3-3-3--2-||
g||-0-0-0-0-0-0-0-0-0-0-0-0-0-0-0-0--3-||
d||-2-2-2-2-2-2-2-2-5-5-5-5-5-5-5-5--0-||
a||-3-3-3-3-3-3-3-3-4-4-4-4-4-4-4-4----||
e||------------------------------------||


Bridge
   (Gtr. 1 - W/Dist)
e||----------------------||
b||----------------------||
g||----------------------||
d||-0-0-0------0-0-0-----||
a||-5-4-2-0-0--5-4-2-0-0-||
e||-------3-5--------3-5-||
 ||
 ||(Gtr. 2 - Clean)
e||-0-0-0------0-0-0-----||
b||-0-0-0------0-0-0-----||
g||-2-2-2------2-2-2-----||
d||-2-2-2------2-2-2-----||
a||-0-0-0------0-0-0-----||
e||----------------------||

   (Both Guitars)
e||-3-3-3-3-3-3-3-3-3-3-3-3-3-||
b||-1-1-1-1-1-1-1-1-1-1-1-1-1-||
g||-0-0-0-0-0-0-0-0-0-0-0-0-0-||
d||-2-2-2-2-2-2-2-2-2-2-2-2-2-||
a||-3-3-3-3-3-3-3-3-3-3-3-3-3-||
e||---------------------------||

   (Gtr. 1 - W/Dist)
e||----------------------||
b||----------------------||
g||----------------------||
d||-0-0-0------0-0-0-----||
a||-5-4-2-0-0--5-4-2-0-0-||
e||-------3-5--------3-5-||
 ||
 ||(Gtr. 2 - Clean)
e||-0-0-0------0-0-0-----||
b||-0-0-0------0-0-0-----||
g||-2-2-2------2-2-2-----||
d||-2-2-2------2-2-2-----||
a||-0-0-0------0-0-0-----||
e||----------------------||

   (Gtr. 1)
e||-3-3-3-3-3-3-3-5-5-5-5-5-5-||
b||-1-1-1-1-1-1-1-3-3-3-3-3-3-||
g||-0-0-0-0-0-0-0-0-0-0-0-0-0-||
d||-2-2-2-2-2-2-2-4-4-4-4-4-4-||
a||-3-3-3-3-3-3-3-5-5-5-5-5-5-||
e||---------------------------||
 ||
 ||(Gtr. 2)
e||-3-3-3-3-3-3-3-2-2-2-2-2-2-||
b||-1-1-1-1-1-1-1-3-3-3-3-3-3-||
g||-0-0-0-0-0-0-0-2-2-2-2-2-2-||
d||-2-2-2-2-2-2-2-0-0-0-0-0-0-||
a||-3-3-3-3-3-3-3-------------||
e||---------------------------||


Outro
   (Gtr. 1)
e||-3-3-3-3-3-3-5-5-5-5-5-5-5-5-10-10-10-10-10-10-10-10-0---0-0-||
b||-1-1-1-1-1-1-3-3-3-3-3-3-3-3--8--8--8--8--8--8--8--8-2---2-2-||
g||-0-0-0-0-0-0-0-0-0-0-0-0-0-0--0--0--0--0--0--0--0--0-0---0-0-|| (2x)
d||-2-2-2-2-2-2-4-4-4-4-4-4-4-4--9--9--9--9--9--9--9--9-2---2-2-||
a||-3-3-3-3-3-3-5-5-5-5-5-5-5-5-10-10-10-10-10-10-10-10-0---0-0-||
e||-------------------------------------------------------------||
 ||
 ||(Gtr. 2)
e||-3-3-3-3-3-3-3-3-------------3-3-3-3-3-3-3-3-3-0---0-0-------||
b||-1-1-1-1-1-1-1-1---1---1---1-3-3-3-3-3-3-3-3-3-2---2-2-------||
g||-0-0-0-0-0-0-0-0-0-0-0-0-0-0-0-0-0-0-0-0-0-0-0-0---0-0-------|| (2x)
d||-2-2-2-2-2-2-2-2-2-2-2-2-2-2-0-0-0-0-0-0-0-0-0-2---2-2-------||
a||-3-3-3-3-3-3-3-3-3-3-3-3-3-3-2-2-2-2-2-2-2-2-2-0---0-0-------||
e||-----------------------------3-3-3-3-3-3-3-3-3---------------||

   (Gtr. 1)
e||-3-3-3-3-3-3-5-5-5-5-5-5-5-5-10-||
b||-1-1-1-1-1-1-3-3-3-3-3-3-3-3--8-||
g||-0-0-0-0-0-0-0-0-0-0-0-0-0-0--0-||
d||-2-2-2-2-2-2-4-4-4-4-4-4-4-4--9-||
a||-3-3-3-3-3-3-5-5-5-5-5-5-5-5-10-||
e||--------------------------------||
 ||
 ||(Gtr. 2)
e||-3-3-3-3-3-3-3-3-------------3--||
b||-1-1-1-1-1-1-1-1---1---1---1-3--||
g||-0-0-0-0-0-0-0-0-0-0-0-0-0-0-0--||
d||-2-2-2-2-2-2-2-2-2-2-2-2-2-2-0--||
a||-3-3-3-3-3-3-3-3-3-3-3-3-3-3-2--||
e||-----------------------------3--||

Fade out
e||-10-10-10-10-10-10-10-10-10-10-10-10-10-10-10-10-10-||
b||--8--8--8--8--8--7--7--7--7--8--8--8--8--8--8--8--8-||
g||--0--0--0--0--0--0--0--0--0--0--0--0--0--0--0--0--0-||
d||--9--9--9--9--9--9--9--9--9--9--9--9--9--9--9--9--9-||
a||-10-10-10-10-10-10-10-10-10-10-10-10-10-10-10-10-10-||
e||----------------------------------------------------||

_____________________________________
Foo Fighters - Headwires
Tunings:
(Gtr. 1) - dAGDAD
(Gtr. 2) - eBGDAE


Intro and Verse riff

(Gtr. 1) - w/Chorus


Main riff
d||--------------------------||
A||--------------------------||
G||--------------------------||
D||--0-0-0-0--0-0-0-0-0---0--||
A||--5-4-2-0--5-4-0-2-0------||
D||---------------------0----||

Other riff, about twice per verse
d||-------------------------||
A||----------------------0--||
G||------0---4-0------------||
D||--------0---------2------||
A||----5-----------2---2----||
D||--5-----------2----------||

  (Gtr. 2)
e||-------|--------|------|-----------||
B||-------|-----*7-|---*7-|-----*7----||
G||----*7-|---*7---|------|---*7--*7--|| Uses these's harmonic riff's in
D||--*7---|-*7-----|-*7---|-*7--------|| the background at regular intervals.
A||-------|--------|------|-----------||
E||-------|--------|------|-----------||
* = Harmonics


First Chorus (with distortion)
  (Gtr. 1)
d||--------------------------------------------------------------------||
A||--------------------------------------------------------------------||
G||--11-11-11-11-11-11-11-9-9-9-9-9-9-9-9-7-7-7-7-7-7-7-7-7-7-7-7-7-7--||
D||--9--9--9--9--9--9-----7-7-7-7-7-7-7-7-5-5-5-5-5-5-5-5-5-5-5-5-5-5--||
A||--9--9--9--9--9--9--9--7-7-7-7-7-7-7-7-5-5-5-5-5-5-5-5-5-5-5-5-5-5--||
D||--9--9--9--9--9--9--9--7-7-7-7-7-7-7-7-5-5-5-5-5-5-5-5-5-5-5-5-5-5--||
 |
 |(Gtr. 2)
e||---------------------------------------------------------||
B||---------------------------------------------------------||
G||---------------------------------------------------------||
D||--9-9-9-9-9-9-9-7-7-7-7-7-7-7-5-5-5-5-5-5-5-5-5-5-5-5-5--||
A||--9-9-9-9-9-9-9-7-7-7-7-7-7-7-5-5-5-5-5-5-5-5-5-5-5-5-5--||
E||--7-7-7-7-7-7-7-5-5-5-5-5-5-5-3-3-3-3-3-3-3-3-3-3-3-3-3--||

  (Gtr. 1)
d||-----------------------------------------||
A||-----------------------------------------||
G||--5-5-5-5-5-5-5-5-5-5--------------------||
D||--5-5-5-5-5-5-5-5-5-5--------------------||
A||--3-3-3-3-3-2-2-2-2-2--------------------||
D||-----------------------------------------||
 |
 |(Gtr. 2)
d||----------------------0-0-0-0-0-0-0-0-0--||
A||----------------------5-4-2-0-5-4-0-2-0--||
G||--5-5-5-5-5-5-5-5-5-5--------------------||
D||--5-5-5-5-5-5-5-5-5-5--------------------||
A||--3-3-3-3-3-2-2-2-2-2--------------------||
D||-----------------------------------------||

  (Gtr. 1)
d||--------------------------------------------------------------------||
A||--------------------------------------------------------------------||
G||--11-11-11-11-11-11-11-9-9-9-9-9-9-9-9-7-7-7-7-7-7-7-7-7-7-7-7-7-7--||
D||--9--9--9--9--9--9-----7-7-7-7-7-7-7-7-5-5-5-5-5-5-5-5-5-5-5-5-5-5--||
A||--9--9--9--9--9--9--9--7-7-7-7-7-7-7-7-5-5-5-5-5-5-5-5-5-5-5-5-5-5--||
D||--9--9--9--9--9--9--9--7-7-7-7-7-7-7-7-5-5-5-5-5-5-5-5-5-5-5-5-5-5--||
 |
 |(Gtr. 2)
e||---------------------------------------------------------||
B||---------------------------------------------------------||
G||---------------------------------------------------------||
D||--9-9-9-9-9-9-9-7-7-7-7-7-7-7-5-5-5-5-5-5-5-5-5-5-5-5-5--||
A||--9-9-9-9-9-9-9-7-7-7-7-7-7-7-5-5-5-5-5-5-5-5-5-5-5-5-5--||
E||--7-7-7-7-7-7-7-5-5-5-5-5-5-5-3-3-3-3-3-3-3-3-3-3-3-3-3--||

Both Guitars
d||-------------------------------------------||
A||-------------------------------------------||
G||--5-5-5-5-5-5-5-5-5-5-3-3-3-3-3-3-3-3-3-3--||
D||--5-5-5-5-5-5-5-5-5-5-3-3-3-3-3-3-3-3-3-3--||
A||--3-3-3-3-3-2-2-2-2-2-1-1-1-1-1-0-0-0-0-0--||
D||-------------------------------------------||

  (Gtr. 1)
d||-------------------------||
A||----------------------0--||
G||------0---4-0------------||
D||--------0---------2------||
A||----5-----------2---2----||
D||--5-----------2----------||


Second Chorus Addition/Bridge
  (Gtr. 1)
d||-------5-----5-------5-----5-------3-----3-------3-----3--||
A||---------5-------------5-------------3-------------3------||
G||-----------5-------------5-------------3-------------3----||
D||---5-------------5-------------3-------------3------------||
A||-3---3---------2---2---------1---1---------0---0----------||
D||----------------------------------------------------------||
 |
 |(Gtr. 1)
d||-------------------------------------------||
A||-------------------------------------------||
G||--5-5-5-5-5-5-5-5-5-5-3-3-3-3-3-3-3-3-3-3--||
D||--5-5-5-5-5-5-5-5-5-5-3-3-3-3-3-3-3-3-3-3--||
A||--3-3-3-3-3-2-2-2-2-2-1-1-1-1-1-0-0-0-0-0--||
D||-------------------------------------------||


Outro, extra riff
  (Gtr. 1)
d||----------------------||
A||----------------------||
G||----------------------||
D||--0---0-0--0---0-0-0--||
A||--4h5-2-0--4h5-0-2-0--||
D||----------------------||
 
  (Gtr. 2) harmonic positions (mess with these at outro)
e||--------*7--||
B||------*7----||
G||----*7------||
D||--*7--------||
A||------------||
E||------------||

_____________________________________
Foo Fighters - Ain't It The Life
(Normal Tuning)


Intro
  Gtr. 1
e|-------------------------|-------------------------|
B|----------------8-----8--|-10-10-10-10-8-----------|
G|------------5/9---9-7----|---------------7---------|
D|-------------------------|-------------------------|
A|-------------------------|-------------------------|
E|-------------------------|-------------------------|
 |
 |Gtr. 2
e|-0-0---------------------|--------3-3-3-3-3-3-3----|
B|-1---1-------------------|--------3-3-3-3-3-3-3----|
G|-0-----0-----------------|--------0-0-0-0-0-0-0----|
D|-2-------2---------------|--------0-0-0-0-0-0-0----|
A|-3---------3-------------|--------2-2-2-2-2-2-2----|
E|-------------------------|-0-0--2-3-3-3-3-3-3-3----|
    

Verse
  Gtr. 1
e|----------------------------------------------------|
B|----------------------------------------------------|
G|----------------------------------------------------|
D|----------------------------------------------------|
A|----------------------------------------------------|
E|----------------------------------------------------|
 |
 |Gtr. 2
e|-------3-----3-----3-----3------0-----0-----0-----0-|
B|---------1-----1-----1------------1-----1-----1-----|
G|-----0-----0-----0-----0------0-----0-----0-----0---|
D|---2------------------------2-----------------------|
A|-3------------------------0-------------------------|
E|----------------------------------------------------|

  Gtr. 1
e|---------------------3-----3-------0--------------------|
B|-----------------5-------5-------8---8---10----10----10-|
G|---------------5---5---5-----5/9---9--10----10----10----|
D|--------------------------------------------------------|
A|--------------------------------------------------------|
E|--------------------------------------------------------|
 |
 |Gtr. 2
e|----------------0-0-0--0-0--0-0-0-0-0--1-1-1--1-1-1-1-1-|
B|----------------1-1-1--1-1--1-1-1-1-1--1-1-1--1-1-1-1-1-|
G|-5-5-5-5-5-5/7--0-0-0--0-0--0-0-0-0-0--3-2-2--2-2-2-2-2-|
D|-6-6-6-6-6-6/8--2-2-2--2-2--0-0-0-0-0--x-3-3--3-3-3-3-3-|
A|-6-6-6-6-6-6/8--3-3-3--3-3--2-2-2-2-2--3-3-3--3-3-3-3-3-|
E|-4-4-4-4-4-4/8-------------------------1-1-1--1-1-1-1-1-|

  Gtr. 1
e|-8-----7-----8-----7------8-----7-----8-----8-------|
B|---8-----8-----8-----8------8-----8-----8-----------|
G|-----9-----9-----9-----9------9-----9-----9---------|
D|----------------------------------------------------|
A|----------------------------------------------------|
E|----------------------------------------------------|
 |
 |Gtr. 2
e|-------3-----3-----3-----3------0-----0-----0-----0-|
B|---------1-----1-----1------------1-----1-----1-----|
G|-----0-----0-----0-----0------0-----0-----0-----0---|
D|---2------------------------2-----------------------|
A|-3------------------------0-------------------------|
E|----------------------------------------------------|

  Gtr. 1
e|---------------------3-----3-------0--------------------|
B|-----------------5-------5-------8---8---10----10----10-|
G|---------------5---5---5-----5/9---9--10----10----10----|
D|--------------------------------------------------------|
A|--------------------------------------------------------|
E|--------------------------------------------------------|
 |
 |Gtr. 2
e|----------------0-0-0--0-0--0-0-0-0-0--1-1-1--1-1-1-1-1-|
B|----------------1-1-1--1-1--1-1-1-1-1--1-1-1--1-1-1-1-1-|
G|-5-5-5-5-5-5/7--0-0-0--0-0--0-0-0-0-0--3-2-2--2-2-2-2-2-|
D|-6-6-6-6-6-6/8--2-2-2--2-2--0-0-0-0-0--x-3-3--3-3-3-3-3-|
A|-6-6-6-6-6-6/8--3-3-3--3-3--2-2-2-2-2--3-3-3--3-3-3-3-3-|
E|-4-4-4-4-4-4/8-------------------------1-1-1--1-1-1-1-1-|


Pre-Chorus
  Gtr. 1 & 2
e|-3-3-3-3-3-3-3-3-3-3-3-3-3-3-3-3-0-0-0-0-0-0-0-0-0-0-0-0-0-0-0-0-|
B|-3-3-3-3-3-3-3-3-3-3-3-3-3-3-3-3-1-1-1-1-1-1-1-1-1-1-1-1-1-1-1-1-|
G|-0-0-0-0-0-0-0-0-0-0-0-0-0-0-0-0-0-0-0-0-0-0-0-0-0-0-0-0-0-0-0-0-|
D|-0-0-0-0-0-0-0-0-0-0-0-0-0-0-0-0-2-2-2-2-0-0-0-0-2-2-2-2-2-2-2-2-|
A|-2-2-2-2-2-2-2-2-2-2-2-2-2-2-2-2-3-3-3-3-2-2-2-2-0-0-0-0-0-0-0-0-|
E|-3-3-3-3-3-3-3-3-3-3-3-3-3-3-3-3---------------------------------|

  Gtr. 1
e|---------------------------------|
B|----------------3-4-3------------|
G|--------------5--------5---------|
D|---------------------------------|
A|---------------------------------|
E|---------------------------------|
 |
 |Gtr. 2
e|-1-----------------------1-1-1-1-|
B|-1-----------------------1-1-1-1-|
G|-1-----------------------1-1-1-1-|
D|-3-----------------------3-3-3-3-|
A|-3-----------------------3-3-3-3-|
E|-1-----------------------1-1-1-1-|


Verse 2
  Gtr. 1
e|-8-----7-----8-----7------8-----7-----8-----8-------|
B|---8-----8-----8-----8------8-----8-----8-----------|
G|-----9-----9-----9-----9------9-----9-----9---------|
D|----------------------------------------------------|
A|----------------------------------------------------|
E|----------------------------------------------------|
 |
 |Gtr. 2
e|-------3-----3-----3-----3------0-----0-----0-----0-|
B|---------1-----1-----1------------1-----1-----1-----|
G|-----0-----0-----0-----0------0-----0-----0-----0---|
D|---2------------------------2-----------------------|
A|-3------------------------0-------------------------|
E|----------------------------------------------------|

  Gtr. 1
e|---------------------3-----3-------0--------------------|
B|-----------------5-------5-------8---8---10----10----10-|
G|---------------5---5---5-----5/9---9--10----10----10----|
D|--------------------------------------------------------|
A|--------------------------------------------------------|
E|--------------------------------------------------------|
 |
 |Gtr. 2
e|----------------0-0-0--0-0--0-0-0-0-0--1-1-1--1-1-1-1-1-|
B|----------------1-1-1--1-1--1-1-1-1-1--1-1-1--1-1-1-1-1-|
G|-5-5-5-5-5-5/7--0-0-0--0-0--0-0-0-0-0--3-2-2--2-2-2-2-2-|
D|-6-6-6-6-6-6/8--2-2-2--2-2--0-0-0-0-0--x-3-3--3-3-3-3-3-|
A|-6-6-6-6-6-6/8--3-3-3--3-3--2-2-2-2-2--3-3-3--3-3-3-3-3-|
E|-4-4-4-4-4-4/8-------------------------1-1-1--1-1-1-1-1-|

  Gtr. 1
e|-8-----7-----8-----7------8-----7-----8-----8-------|
B|---8-----8-----8-----8------8-----8-----8-----------|
G|-----9-----9-----9-----9------9-----9-----9---------|
D|----------------------------------------------------|
A|----------------------------------------------------|
E|----------------------------------------------------|
 |
 |Gtr. 2
e|-------3-----3-----3-----3------0-----0-----0-----0-|
B|---------1-----1-----1------------1-----1-----1-----|
G|-----0-----0-----0-----0------0-----0-----0-----0---|
D|---2------------------------2-----------------------|
A|-3------------------------0-------------------------|
E|----------------------------------------------------|

  Gtr. 1
e|---------------------3-----3-------0--------------------|
B|-----------------5-------5-------8---8---10----10----10-|
G|---------------5---5---5-----5/9---9--10----10----10----|
D|--------------------------------------------------------|
A|--------------------------------------------------------|
E|--------------------------------------------------------|
 |
 |Gtr. 2
e|----------------0-0-0--0-0--0-0-0-0-0----1-1--1-1-1-1-1-|
B|----------------1-1-1--1-1--1-1-1-1-1----1-1--1-1-1-1-1-|
G|-5-5-5-5-5-5/7--0-0-0--0-0--0-0-0-0-0----2-2--2-2-2-2-2-|
D|-6-6-6-6-6-6/8--2-2-2--2-2--0-0-0-0-0--3-3-3--3-3-3-3-3-|
A|-6-6-6-6-6-6/8--3-3-3--3-3--2-2-2-2-2--3-3-3--3-3-3-3-3-|
E|-4-4-4-4-4-4/8-------------------------1-1-1--1-1-1-1-1-|


Pre-Chorus
  Gtr. 1 & 2
e|-3-3-3-3-3-3-3-3-3-3-3-3-3-3-3-3-0-0-0-0-0-0-0-0-0-0-0-0-0-0-0-0-|
B|-3-3-3-3-3-3-3-3-3-3-3-3-3-3-3-3-1-1-1-1-1-1-1-1-1-1-1-1-1-1-1-1-|
G|-0-0-0-0-0-0-0-0-0-0-0-0-0-0-0-0-0-0-0-0-0-0-0-0-0-0-0-0-0-0-0-0-|
D|-0-0-0-0-0-0-0-0-0-0-0-0-0-0-0-0-2-2-2-2-0-0-0-0-2-2-2-2-2-2-2-2-|
A|-2-2-2-2-2-2-2-2-2-2-2-2-2-2-2-2-3-3-3-3-2-2-2-2-0-0-0-0-0-0-0-0-|
E|-3-3-3-3-3-3-3-3-3-3-3-3-3-3-3-3---------------------------------|

  Gtr. 1
e|---------------------------------|
B|----------------3-4-3------------|
G|--------------5--------5---------|
D|---------------------------------|
A|---------------------------------|
E|---------------------------------|
 |
 |Gtr. 2
e|-1-----------------------1-1-1-1-|
B|-1-----------------------1-1-1-1-|
G|-1-----------------------1-1-1-1-|
D|-3-----------------------3-3-3-3-|
A|-3-----------------------3-3-3-3-|
E|-1-----------------------1-1-1-1-|


Chorus
  Gtr. 1
e|-------3---------0-----------3---------0-------------------0---0-------0-----------|
B|---5-----5---1-----1-----5-----5---1-----1-------1-3-1---3---3-------3---3-------1-|
G|-5---5-----2---2-----2-5---5-----2---2-----2---1-------5-----------0---------0-2---|
D|---------------------------------------------3-------------------2---------3-------|
A|-----------------------------------------------------------------------------------|
E|-----------------------------------------------------------------------------------|
 |
 |Gtr. 2
e|-0---------0-----------0---------0-----------1---------0---------0---------1-------|
B|-1---------1-----------1---------1-----------1---------1---------1---------1-------|
G|-0---------0-----------0---------0-----------1---------0---------0---------2-------|
D|-2---------2-----------2---------2-----------3---------2---------0---------3-------|
A|-3---------0-----------3---------3-----------3---------3---------2---------3-------|
E|---------------------------------------------1-----------------------------1-------|

  Gtr. 1
e|-------3---------0-----------3---------0-------------------0---0-------0-----------|
B|---5-----5---1-----1-----5-----5---1-----1-------1-3-1---3---3-------3---3-------1-|
G|-5---5-----2---2-----2-5---5-----2---2-----2---1-------5-----------0---------0-2---|
D|---------------------------------------------3-------------------2---------3-------|
A|-----------------------------------------------------------------------------------|
E|-----------------------------------------------------------------------------------|
 |
 |Gtr. 2
e|-0---------0-----------0---------0-----------1---------0---------0---------1-------|
B|-1---------1-----------1---------1-----------1---------1---------1---------1-------|
G|-0---------0-----------0---------0-----------1---------0---------0---------2-------|
D|-2---------2-----------2---------2-----------3---------2---------0---------3-------|
A|-3---------0-----------3---------3-----------3---------3---------2---------3-------|
E|---------------------------------------------1-----------------------------1-------|


Interlude
  Gtr. 1
e|-------------------------|-------------------------|
B|----------------8-----8--|-10-10-10-10-8-----------|
G|------------5/9---9-7----|---------------7---------|
D|-------------------------|-------------------------|
A|-------------------------|-------------------------|
E|-------------------------|-------------------------|
 |
 |Gtr. 2
e|-0-0---------------------|--------3-3-3-3-3-3-3----|
B|-1---1-------------------|--------3-3-3-3-3-3-3----|
G|-0-----0-----------------|--------0-0-0-0-0-0-0----|
D|-2-------2---------------|--------0-0-0-0-0-0-0----|
A|-3---------3-------------|--------2-2-2-2-2-2-2----|
E|-------------------------|-0-0--2-3-3-3-3-3-3-3----|


Solo
  Gtr. 1
e|-------12-----------------12----------------------------------------------|
B|-12h13----13-12-13--12h13----13-12-13--8/10/8----------8/10/8-------------|
G|----------------------------------------------7-7/9-9---------7-7/9-9/7/5-|
D|--------------------------------------------------------------------------|
A|--------------------------------------------------------------------------|
E|--------------------------------------------------------------------------|
 |
 |Gtr. 2
e|-0-0-0-0-0-0-0-0-0-0-0-0-0-0-0-0--0-0-0-0-0-0-0-0-0-0-0-0-0-0-0-0---------|
B|-1-1-1-1-1-1-1-1-1-1-1-1-1-1-1-1--1-1-1-1-1-1-1-1-1-1-1-1-1-1-1-1---------|
G|-0-0-0-0-0-0-0-0-0-0-0-0-0-0-0-0--0-0-0-0-0-0-0-0-0-0-0-0-0-0-0-0---------|
D|-2-2-2-2-2-2-2-2-2-2-2-2-2-2-2-2--2-2-2-2-2-2-2-2-2-2-2-2-2-2-2-2---------|
A|-3-3-3-3-3-3-3-3-3-3-3-3-3-3-3-3--0-0-0-0-0-0-0-0-0-0-0-0-0-0-0-0---------|
E|--------------------------------------------------------------------------|

  Gtr. 1
e|-----------------------8---8---8-7-7-7-------------------|
B|---------------------8---8-------------10-8-10-----------|
G|-5-5-5-5-5-7-----7/9---------------------------9b11b9b11-|
D|-7-7-7-7-7-9---------------------------------------------|
A|---------------------------------------------------------|
E|---------------------------------------------------------|
 |
 |Gtr. 2
e|----------------0-0-0--0-0--0-0-0-0-0--1-1-1--1-1-1-1-1--|
B|----------------1-1-1--1-1--1-1-1-1-1--1-1-1--1-1-1-1-1--|
G|-5-5-5-5-5-5/7--0-0-0--0-0--0-0-0-0-0--3-2-2--2-2-2-2-2--|
D|-6-6-6-6-6-6/8--2-2-2--2-2--0-0-0-0-0--x-3-3--3-3-3-3-3--|
A|-6-6-6-6-6-6/8--3-3-3--3-3--2-2-2-2-2--3-3-3--3-3-3-3-3--|
E|-4-4-4-4-4-4/6-------------------------1-1-1--1-1-1-1-1--|

  Gtr. 1
e|--------------------------------------------------------|
B|-8888-6-5--8888-6-5---55555-3-1--555553--1--------------|
G|-9999-7-5--9999-7-5---55555-4-2--555554--2--1-1-1-3-1-0-|
D|--------------------------------------------------------|
A|--------------------------------------------------------|
E|--------------------------------------------------------|
 |
 |Gtr. 2
e|-------3---------3-----------0---------0---------------|
B|---5-----5---5-----5-----1-----1---1-----1-------1-3-1-|
G|-5---5-----5---5-----5-2---2-----2---2-----2---1-------|
D|---------------------------------------------3---------|
A|-------------------------------------------------------|
E|-------------------------------------------------------|

  Gtr. 1
e|-------1-0-----------------------------------|
B|-1-3-1-----3-1---------------1---------------|
G|-----------------4-2-0---0h2-----------------|
D|-----------------------2---------------------|
A|---------------------------------------------|
E|---------------------------------------------|
 |
 |Gtr. 2
e|--------3-----3---------0--------------------|
B|----5-------5---------8---8---10----10----10-|
G|--5---5---5-------5/9---9--10----10----10----|
D|---------------------------------------------|
A|---------------------------------------------|
E|---------------------------------------------|

                  
Pre-Chorus
  Gtr. 1 & 2
e|-3-3-3-3-3-3-3-3-3-3-3-3-3-3-3-3-0-0-0-0-0-0-0-0-0-0-0-0-0-0-0-0-|
B|-3-3-3-3-3-3-3-3-3-3-3-3-3-3-3-3-1-1-1-1-1-1-1-1-1-1-1-1-1-1-1-1-|
G|-0-0-0-0-0-0-0-0-0-0-0-0-0-0-0-0-0-0-0-0-0-0-0-0-0-0-0-0-0-0-0-0-|
D|-0-0-0-0-0-0-0-0-0-0-0-0-0-0-0-0-2-2-2-2-0-0-0-0-2-2-2-2-2-2-2-2-|
A|-2-2-2-2-2-2-2-2-2-2-2-2-2-2-2-2-3-3-3-3-2-2-2-2-0-0-0-0-0-0-0-0-|
E|-3-3-3-3-3-3-3-3-3-3-3-3-3-3-3-3---------------------------------|

  Gtr 1
e|---------------------------------|
B|----------------3-4-3------------|
G|--------------5--------5---------|
D|---------------------------------|
A|---------------------------------|
E|---------------------------------|
 |
 |Gtr 2
e|-1-----------------------1-1-1-1-|
B|-1-----------------------1-1-1-1-|
G|-1-----------------------1-1-1-1-|
D|-3-----------------------3-3-3-3-|
A|-3-----------------------3-3-3-3-|
E|-1-----------------------1-1-1-1-|


Chorus
  Gtr. 1
e|-------3---------0-----------3---------0-------------------0---0-------0-----------|
B|---5-----5---1-----1-----5-----5---1-----1-------1-3-1---3---3-------3---3-------1-|
G|-5---5-----2---2-----2-5---5-----2---2-----2---1-------5-----------0---------0-2---|
D|---------------------------------------------3-------------------2---------3-------|
A|-----------------------------------------------------------------------------------|
E|-----------------------------------------------------------------------------------|
 |
 |Gtr. 2
e|-0---------0-----------0---------0-----------1---------0---------0---------1-------|
B|-1---------1-----------1---------1-----------1---------1---------1---------1-------|
G|-0---------0-----------0---------0-----------1---------0---------0---------2-------|
D|-2---------2-----------2---------2-----------3---------2---------0---------3-------|
A|-3---------0-----------3---------3-----------3---------3---------2---------3-------|
E|---------------------------------------------1-----------------------------1-------|
 |
 |Gtr. 3
e|-----------------------------------------------------------------------------------|
B|-8-8-8-8-6-5-8-8-8-8-6-5-8-8-8-8-6-5-8-8-8-8-6-5-----------------------------------|
G|-9-9-9-9-7-5-9-9-9-9-7-5-9-9-9-9-7-5-9-9-9-9-7-5-----------------------------------|
D|-----------------------------------------------------------------------------------|
A|-----------------------------------------------------------------------------------|
E|-----------------------------------------------------------------------------------|

  Gtr. 1
e|-------3---------0-----------3---------0-------------------0---0-------0-----------|
B|---5-----5---1-----1-----5-----5---1-----1-------1-3-1---3---3-------3---3-------1-|
G|-5---5-----2---2-----2-5---5-----2---2-----2---1-------5-----------0---------0-2---|
D|---------------------------------------------3-------------------2---------3-------|
A|-----------------------------------------------------------------------------------|
E|-----------------------------------------------------------------------------------|
 |
 |Gtr. 2
e|-0---------0-----------0---------0-----------1---------0---------0---------1-------|
B|-1---------1-----------1---------1-----------1---------1---------1---------1-------|
G|-0---------0-----------0---------0-----------1---------0---------0---------2-------|
D|-2---------2-----------2---------2-----------3---------2---------0---------3-------|
A|-3---------0-----------3---------3-----------3---------3---------2---------3-------|
E|---------------------------------------------1-----------------------------1-------|
 |
 |Gtr. 3
e|-----------------------------------------------------------------------------------|
B|-8-8-8-8-6-5-8-8-8-8-6-5-8-8-8-8-6-5-8-8-8-8-6-5-----------------------------------|
G|-9-9-9-9-7-5-9-9-9-9-7-5-9-9-9-9-7-5-9-9-9-9-7-5-----------------------------------|
D|-----------------------------------------------------------------------------------|
A|-----------------------------------------------------------------------------------|
E|-----------------------------------------------------------------------------------|


Outro (Fade out)
  Gtr. 1
e|------------------------------------------------------------------|
B|-8-8-8-8-6--5--8-8-8-8-6--5-------8-8-8-8-6--5--8-8-8-8-6--5------|
G|-9-9-9-9-7--5--9-9-9-9-7--5-------9-9-9-9-7--5--9-9-9-9-7--5------|
D|------------------------------------------------------------------|
A|------------------------------------------------------------------|
E|------------------------------------------------------------------|
 |
 |Gtr. 2
e|-0-0-0-0-0-0-0-0-0-0-0-0-0-0-0-0--0-0-0-0-0-0-0-0-0-0-0-0-0-0-0-0-|
B|-1-1-1-1-1-1-1-1-1-1-1-1-1-1-1-1--1-1-1-1-1-1-1-1-1-1-1-1-1-1-1-1-|
G|-0-0-0-0-0-0-0-0-0-0-0-0-0-0-0-0--0-0-0-0-0-0-0-0-0-0-0-0-0-0-0-0-|
D|-2-2-2-2-2-2-2-2-2-2-2-2-2-2-2-2--2-2-2-2-2-2-2-2-2-2-2-2-2-2-2-2-|
A|-3-3-3-3-3-3-3-3-3-3-3-3-3-3-3-3--0-0-0-0-0-0-0-0-0-0-0-0-0-0-0-0-|
E|------------------------------------------------------------------|

  Gtr. 1
e|------------------------------------------------------------------|
B|-8-8-8-8-6--5--8-8-8-8-6--5-------8-8-8-8-6--5--8-8-8-8-6--5------|
G|-9-9-9-9-7--5--9-9-9-9-7--5-------9-9-9-9-7--5--9-9-9-9-7--5------|
D|------------------------------------------------------------------|
A|------------------------------------------------------------------|
E|------------------------------------------------------------------|
 |
 |Gtr. 2
e|-0-0-0-0-0-0-0-0-0-0-0-0-0-0-0-0--0-0-0-0-0-0-0-0-0-0-0-0-0-0-0-0-|
B|-1-1-1-1-1-1-1-1-1-1-1-1-1-1-1-1--1-1-1-1-1-1-1-1-1-1-1-1-1-1-1-1-|
G|-0-0-0-0-0-0-0-0-0-0-0-0-0-0-0-0--0-0-0-0-0-0-0-0-0-0-0-0-0-0-0-0-|
D|-2-2-2-2-2-2-2-2-2-2-2-2-2-2-2-2--2-2-2-2-2-2-2-2-2-2-2-2-2-2-2-2-|
A|-3-3-3-3-3-3-3-3-3-3-3-3-3-3-3-3--0-0-0-0-0-0-0-0-0-0-0-0-0-0-0-0-|
E|------------------------------------------------------------------|

_____________________________________

M.I.A
Intro/Verse
Gtr. 1 (scratchy record player effect) (easy strumming)
  Dmaj9		    Gsus6add#4
e|------0-------0---------0------0---|
a|------0-------0---------0------0---|
g|6--7--7---6---7---6--7--7---6--7---|
d|0-----0---0---0---5-----5---5--5---|
a|0-----0---0---0---5-----5---5--5---|
d|0---------0---0---5---------5--5---|

Gtr. 2 (clean) (straight 8th notes)
  Dsus2			  Gsus6
e|0--0--0--0--0--0--0--0--0--0--0--0--0--0--0--0---|
a|0--0--0--0--0--0--0--0--0--0--0--0--0--0--0--0---|
g|2--2--2--2--2--2--2--2--7--7--7--7--7--7--7--7---|
d|0--0--0--0--0--0--0--0--5--5--5--5--5--5--5--5---|
a|0--0--0--0--0--0--0--0--5--5--5--5--5--5--5--5---|
d|0--0--0--0--0--0--0--0--5--5--5--5--5--5--5--5---|


Chorus
Gtr. 1 (distortion and very slight chorus)
  feedback (very quiet) pitch= D
e|-----------------------------------|
a|-----------------------------------|
g|-----------------------------------|
d|<5>~~~~~~~~~~~~~~~~~~~~~~~~~~~~~~~~|
a|-x---------------------------------|
d|<5>~~~~~~~~~~~~~~~~~~~~~~~~~~~~~~~~|

Gtr. 2 (distortion and palm muting)
  D5	      G5	  Bb5	      A5
e|-------------------------------------------------|
a|-------------------------------------------------|
g|------------------------3--3--3--3--2--2--2--2---|
d|0--0--0--0--5--5--5--5--3--3--3--3--2--2--2--2---|
a|0--0--0--0--5--5--5--5--1--1--1--1--0--0--0--0---|
d|0--0--0--0--5--5--5--5---------------------------|


Post-Chorus
Both guitars (distortion)
  Gsus6						  D5  
e|0--0--0--0--0--0--0--0--0--0--0--0--0--0--0--0---------|
a|0--0--0--0--0--0--0--0--0--0--0--0--0--0--0--0---------|
g|7--7--7--7--7--7--7--7--7--7--7--7--7--7--7--7---------|
d|5--5--5--5--5--5--5--5--5--5--5--5--5--5--5--5--0--0---|
a|5--5--5--5--5--5--5--5--5--5--5--5--5--5--5--5--0--0---|
d|5--5--5--5--5--5--5--5--5--5--5--5--5--5--5--5--0--0---|
	D  D5		  F5	      A  (5)
e|------2------------------------------------------|
a|------0-----------------------------4------------|
g|------2-----------------------------2--2--2--2---|
d|0--0--0--0--0--0--0--0--3--3--3--3--2--2--2--2---|
a|0--0--0--0--0--0--0--0--3--3--3--3--0--0--0--0---|
d|0--0--0--0--0--0--0--0--3--3--3--3---------------|
comments
print report bad tab
5 comments total. Showing first comments.
0 reply
spenc3r wrote on August 21 2004, 12:00 am

OI bell end u used my best m8s tab wot u think ure doin tab it ureself u wanka

0 reply
feesk8ordie wrote on January 28 2005, 12:00 am

also there is no bloody next year tab!!

0 reply
feesk8ordie wrote on January 30 2005, 12:00 am

uhhh, sorry missed it. nice tab!!

I want to post or [tab]
guest
You may want to rate the tab now too:
select rating
Please do not post tabs as comments. Select "correction" instead!