Oops, an error
Loading. Please wait.

Wasting Light Tab

28,047 views 136 this week
no commentswrite comment
1 2 3 4 5
excellent!
x 8
add to favorites launch autoscroll
font size
0
reset
Autoscroll
+/-
esc
set tempo
stop
Contributor
WARNING: You are trying to view
                                    content from Ultimate-Guitar.com
                                    in an unauthorized application,
                                    which is prohibited.

                                    Please use an official Ultimate
                                    Guitar Tabs application for iPhone,
                                    iPad or Android to access legitimate
                                    chords, guitar, bass, and drum tabs
                                    from Ultimate-Guitar.com database.

                                    Type "ultimate guitar tabs" in Apple
                                    App Store's or Android Market's
                                    search to find the application.
Foo Fighters - Wasting Light Album



**** I only compiled these tabs together, all kudos goes to the original tabbers 
listed in each song****


Guitarherolol


Foo Fighters - Bridge Burning

Tabbed by: Howard2k3k

Tuning: Standard (EADGBe)

Intro:


|--------------------------------------------|
|--------------------------------------------|
|--x--x-x--x--x-x--x--x-x--x--x-x-x--x-x-x---|
|--x--x-x--x--x-x--x--x-x--x--x-x-x--x-x-x---|
|--4-------4-------4-------4------4----------|
|--------------------------------------------|

X -> calmy lay your fingers on the 6th fret



Guitar 1:

(0:12)

|---------------------------------------|
|---------------------------------------|
|---------------------------------------|
|---------------------------------------|
|--5-7-5-7-5-7-5-7-5-7----5-7-----------|
|----------------------0-------0--------|
   . . . . . . . . . . .  . .  .  


Guitar 2:

(0:17)

|---------------------------------------|
|---------------------------------------|
|---------------------------------------|
|---------------------------------------|
|--5-7-5-7-5-7-5-7-5-7----5-7-----------|
|----------------------0-------0--------|




Verse: 

(0:34)

|-----------------------------------------------------------|
|-----------------------------------------------------------|
|--99-9\88-8\77-7\66----------------5555-----------7777-----|
|--99-9\88-8\77-7\66----------------5555-5555-7777-7777-----|  x 2
|--77-7\66-6\55-5\44----------------3333-5555-7777-5555-----|
|----------------------12\\\\\\----------3333-5555----------|


(0:45)

|-------------------------------------------------------------------|
|-------------------------------------------------------------------|
|-------------------------------------------------------------------|
|------5-------5-------5-------5-------5-------5-------5-------5----|
|--7-7---77-66---66-55---55-44---44-33---33-----------------55------|
|-------------------------------------------33---33--55--55---------|
   . .   .. ..   .. ..   .. ..   .. ..   .. ..   ..  ..  .. ..   

 


|----------------------------------------------------------------------------|
|------------------------------------------------------------(5)-------------|
|----------------------------------------------------------------------------|
|------5-------5-------5-------5-------5-------5---------5-------------------|
|--7-7---77-66---66-55---55-44---44-33---33----------------------------------|
|-------------------------------------------33---33--5555--5-----12\\\\\\\---|
   . .   .. ..   .. ..   .. ..   .. ..   .. ..   ..  ....  .      



(0:57)

|-------------------------------------------------------------------|
|-------------------------------------------------------------------|
|-------------------------------------------------------------------|
|------5-------5-------5-------5-------5-------5-------5-------5----|
|--7-7---77-66---66-55---55-44---44-33---33-----------------55------|
|-------------------------------------------33---33--55--55---------|
   . .   .. ..   .. ..   .. ..   .. ..   .. ..   ..  ..  .. ..   



|----------------------------------------------------------------------------|
|------------------------------------------------------------(5)-------------|
|----------------------------------------------------------------------------|
|------5-------5-------5-------5-------5-------5---------5-------------------|
|--7-7---77-66---66-55---55-44---44-33---33----------------------------------|
|-------------------------------------------33---33--5555--5-----12\\\\\\\---|
   . .   .. ..   .. ..   .. ..   .. ..   .. ..   ..  ....  .      



(1:08)


|-------------------------------------------------------------------|
|-------------------------------------------------------------------|
|-------------------------------------------------------------------|
|------5-------5-------5-------5-------5-------5-------5-------5----|
|--7-7---77-66---66-55---55-44---44-33---33-----------------55------|
|-------------------------------------------33---33--55--55---------|
   . .   .. ..   .. ..   .. ..   .. ..   .. ..   ..  ..  .. ..   



|----------------------------------------------------------------------------|
|------------------------------------------------------------(5)-------------|
|----------------------------------------------------------------------------|
|------5-------5-------5-------5-------5-------5---------5-------------------|
|--7-7---77-66---66-55---55-44---44-33---33----------------------------------|
|-------------------------------------------33---33--5555--5-----12\\\\\\\---|
   . .   .. ..   .. ..   .. ..   .. ..   .. ..   ..  ....  .      


(1:19)


|-------------------------------------------------------------------|
|-------------------------------------------------------------------|
|-------------------------------------------------------------------| 
|------5-------5-------5-------5-------5-------5-------5-------5----|  x 2
|--7-7---77-66---66-55---55-44---44-33---33-----------------55------| 
|-------------------------------------------33---33--55--55---------|



Pre-chours:

(1:30)

Guitar 1:


|----3--2--3---------3--2--3----------3--2--3------------|
|-----3--3--3--3------3--3--3--3-------3--3--3--3--------|
|------0--0--0--0------0--0--3--0-------0--0--3--0-------| x 2
|----------------4---------------4----------------4------|
|--3---------------0----------------3--------------------|
|--------------------------------------------------------|

[Not 100% sure, but this sounds good.]

Guitar 2:


|--3~------0~-----|
|--3~------3~-----|
|--0~------2~-----|
|--2~------2~-----|  x 2
|--3~------0~-----|
|-----------------|


(1:40)

|-----------------|
|-----------------|
|--88888888-------|
|--88888888-------|
|--66666666-------|
|-----------------|



Chours:

(1:42)

|----------------------------------------------------------------------------|
|----------------------------------------------------------------------------|
|------------------7-777777777777777--5-5555-------------555555--------------|
|--99999999999999--7-777777777777777--5-5555--2-2222222--555555--2-2222222---|x2  
|--77777777777777--5-555555555555555--3-3333--2-2222222--333333--2-2222222---|
|--00000000000000-----------------------------0-0000000----------0-0000000---|



(2:05)

|-------------------------------------------|
|-------------------------------------------|
|--555555-------------77777777777777-88-----|
|--555555--2-2222222--77777777777777-88-----|
|--333333--2-2222222--55555555555555-66-----|
|----------0-0000000------------------------|


(2:10)

|---------------------------------------|
|---------------------------------------|
|---------------------------------------|
|---------------------------------------|  x2
|--5-7-5-7-5-7-5-7-5-7----5-7-----------|
|----------------------0-------0--------|



|-------------------------------------------------------------------|
|-------------------------------------------------------------------|
|-------------------------------------------------------------------|
|------5-------5-------5-------5-------5-------5-------5-------5----|
|--7-7---77-66---66-55---55-44---44-33---33-----------------55------|
|-------------------------------------------33---33--55--55---------|
   . .   .. ..   .. ..   .. ..   .. ..   .. ..   ..  ..  .. ..   



|----------------------------------------------------------------------------|
|------------------------------------------------------------(5)-------------|
|----------------------------------------------------------------------------|
|------5-------5-------5-------5-------5-------5---------5-------------------|
|--7-7---77-66---66-55---55-44---44-33---33----------------------------------|
|-------------------------------------------33---33--5555--5-----12\\\\\\\---|
   . .   .. ..   .. ..   .. ..   .. ..   .. ..   ..  ....  .      



(2:27)


|---------------------------------------------|
|---------------------------------------------|
|--9-99-888-777-66---5-55----------77---------|
|--9-99-888-777-66---5-55-555-777--77---------| x 2
|--7-77-666-555-44---3-33-555-777--55---------|
|-------------------------333-555-------------|



(2:38)

|----3--2--3---------3--2--3----------3--2--3------------|
|-----3--3--3--3------3--3--3--3-------3--3--3--3--------|
|------0--0--0--0------0--0--3--0-------0--0--3--0-------| x 2
|----------------4---------------4----------------4------|
|--3---------------0----------------3--------------------|
|--------------------------------------------------------|



|--3~------0~-----|
|--3~------3~-----|
|--0~------2~-----|
|--2~------2~-----|  x 2
|--3~------0~-----|
|-----------------|


(2:48)

|-----------------|
|-----------------|
|--88888888-------|
|--88888888-------|
|--66666666-------|
|-----------------|



Chours 2:

(2:50)

|----------------------------------------------------------------------------|
|----------------------------------------------------------------------------|
|------------------7-777777777777777--5-5555-------------555555--------------|
|--99999999999999--7-777777777777777--5-5555--2-2222222--555555--2-2222222---|x2
|--77777777777777--5-555555555555555--3-3333--2-2222222--333333--2-2222222---|
|--00000000000000-----------------------------0-0000000----------0-0000000---|



|-------------------------------------------|
|-------------------------------------------|
|--555555-------------77777777777777-88-----|
|--555555--2-2222222--77777777777777-88-----|
|--333333--2-2222222--55555555555555-66-----|
|----------0-0000000------------------------|


Bridge:

(3:18)


Guitar 1:

|-------------------------------------------------------------------------|
|-------------------------------------------------------------------------|
|------------------------------------------------------77777777-88888888--|
|--999999999999999--4444444444444444--000000000000000--77777777-88888888--|x2
|--777777777777777--4444444444444444--555555555555555--55555555-66666666--|
|--000000000000000--2222222222222222--333333333333333---------------------|


Guitar 2:


|--------------------------------------------------------------|
|--------------------------------------------------------------|
|--/16-16-141h16-16-14h16-16-14h16-16--14-14-14-14-14-14-14-14-|------|
|--------------------------------------------------------------|      | x2
|--------------------------------------------------------------|      |
|--------------------------------------------------------------|      |
                                                                      |
----------------------------------------------------|                 |
----------------------------------------------------|                 |
-12-12-12-12-12-12-12-12--14-14-14-14-15-15-15-15---|                 |
----------------------------------------------------|-----------------|
----------------------------------------------------|
----------------------------------------------------|

[Again, not 100% sure about guitar 2. Hard to hear exactly.]


----------------------------------------|
|---------------------------------------|
|---------------------------------------|
|---------------------------------------|
|--5-7-5-7-5-7-5-7-5-7----5-7-----------|
|----------------------0-------0--------|



Chours 3:

(3:43)

|----------------------------------------------------------------------------|
|----------------------------------------------------------------------------|
|------------------7-777777777777777--5-5555-------------555555--------------|
|--99999999999999--7-777777777777777--5-5555--2-2222222--555555--2-2222222---|x4
|--77777777777777--5-555555555555555--3-3333--2-2222222--333333--2-2222222---|
|--00000000000000-----------------------------0-0000000----------0-0000000---|




|-------------------------------------------|
|-------------------------------------------|
|--555555-------------77777777777777-8\-----|
|--555555--2-2222222--77777777777777-8\-----|
|--333333--2-2222222--55555555555555-6\-----|
|----------0-0000000------------------------|


Outro:

(4:34)

|---------------------------------------|
|---------------------------------------|
|---------------------------------------|
|---------------------------------------| x 2
|--5-7-5-7-5-7-5-7-5-7----5-7-----------|
|----------------------0-------0--------|



|---------------------------------------------------------------|
|---------------------------------------------------------------|
|---------------------------------------------------------------|
|---------------------------------------------------------------|
|--5-7-5-7-5-7-5-7-5-7-5-7-5-7-5-7-5-7-5-7-5-7-5-7-5-7---5-7----|
|------------------------------------------------------0-----0--|




Song: Rope
Artist: Foo Fighters
Album: Wasting Light
Tabbed by: rd93
Tuning: Standard (EADGBe)

Intro (Guitar 1 with Delay):
e|-------------------------------------3-----------------3------------------|
B|-5-----------------12----------------6-----------------6------------------|
G|-7-----------------14----------------5-----------------5------------------|
D|-7-----------------14-----------------------------------------------------|
A|--------------------------------------------------------------------------|
E|--------------------------------------------------------------------------|

e|-------------------------------------3-----------------3--------|
B|-5-----------------12----------------6-----------------6--------|
G|-7-----------------14----------------5-----------------5--------|
D|-7-----------------14-------------------------------------------|
A|----------------------------------------------------------------|
E|----------------------------------------------------------------|
 |                                                                |
e|----------------------------------------3-3-3-0-3---------3-3-3-|
B|----5-5-5-0-5--------12-12-12-0--12-----6-6-6-6-6---------6-6-6-|
G|----7-7-7-7-7--------14-14-14-14-14-----5-5-5-5-5---------5-5-5-|
D|----7-7-7-7-7--------14-14-14-14-14-----------------------------|
A|----------------------------------------------------------------|
E|----------------------------------------------------------------|

Verse/Pre-chorus:
e|---------------|----------------------------------------------------------|
B|---------------|---5---5-5-5-5-0--5------------12--121212120--12----------|
G|---------------|o--7---7-7-7-7-7--7------------14--1414141414-14----------|
D|---------------|o--7---7-7-7-7-7--7------------14--1414141414-14----------|
A|---------------|----------------------------------------------------------|
E|---------------|----------------------------------------------------------|
 |                                                                          |
e|---------------|----------------------------------------------------------|
B|---------------|----------------------------------------------------------|
G|---------------|o---------------------------------------------------------|
D|---------------|o---------------------------------------------------------|
A|-------7---5---|-------------------------------9---9-9-9-9-12-9-----------|
E|-7-5-5-------5-|---7---7-7-7-7-10-7---------------------------------------|

e|---3---3-3-3-3-0-3------------3---3-3-3-3-0-3-----------------------------|
B|---6---6-6-6-6-6-6------------6---6-6-6-6-6-6------------5---5-5-5-5-0--5-|
G|---5---5-5-5-5-5-5------------5---5-5-5-5-5-5------------7---7-7-7-7-7--7-|
D|---------------------------------------------------------7---7-7-7-7-7--7-|
A|--------------------------------------------------------------------------|
E|--------------------------------------------------------------------------|
 |                                                                          |
e|--------------------------------------------------------------------------|
B|--------------------------------------------------------------------------|
G|--------------------------------------------------------------------------|
D|--------------------------------------------------------------------------|
A|---5---5-5-5-5-3-5------------5---5-5-5-5-3-5-0~--------------------------|
E|---------------------------------------------------------7---7-7-7-7-10-7-|

e|---------------------------------------3---3-3-3-3-0-3------------3---3-3-|
B|-----------12--121212120--12-----------6---6-6-6-6-6-6------------6---6-6-|
G|-----------14--1414141414-14-----------5---5-5-5-5-5-5------------5---5-5-|
D|-----------14--1414141414-14----------------------------------------------|
A|--------------------------------------------------------------------------|
E|--------------------------------------------------------------------------|
 |                                                                          |
e|--------------------------------------------------------------------------|
B|--------------------------------------------------------------------------|
G|--------------------------------------------------------------------------|
D|--------------------------------------------------------------------------|
A|-----------9---9-9-9-9-12-9------------5---5-5-5-5-3-5------------5---5-5-|
E|--------------------------------------------------------------------------|

e|-3-3---------------|
B|-6-6---------------|
G|-5-5--------------o|
D|------------------o|
A|-------------------|
E|-------------------|
 |                   |
e|-------------------|
B|-------------------|
G|------------------o|
D|------------------o|
A|-5-5-------7---5---|
E|-----7-5-5-------5-|

Guitar 2 only plays during the pre-chorus ("Shout!") and when there are no vocals.

Chorus (chords)

Guitar 1:
G 320033
Em7 022030
Bm/E x24430
A x02220

Guitar 2:
G5 3554xx
E5 022xxx
B5 x244xx
A5 5776xx

The fill that Guitar 1 plays after the A is:
e|-------------|
B|-2b3r2p0-----|
G|---------2p0-|
D|-------------|
A|-------------|
E|-------------|

Play everything four times, then:
e|--------------------------------------------------------------------------|
B|--------------------------------------------------------------------------|
G|--------------------------------------------------------------------------|
D|-5---5-5-5---5-5---6---6-6-6---6-6---7---7-7-7---7-7---8---8-8-8---8------|
A|-5---5-5-5---5-5---7---7-7-7---7-7---7---7-7-7---7-7---9---9-9-9---9------|
E|-3---3-3-3---3-3p0-4---4-4-4---4-4p0-5---5-5-5---5-5p0-6---6-6-6---6/\----|

Post-chorus (play over verse before vocals):
e|--------------------------------------------------------------------------|
B|-------------------------------------------------13-----------------------|
G|-------------9-10~--12-14~----------------9-10~-----14~-------------------|
D|-9~--11-12~-------------------9~--11-12~---------10-----------------------|
A|-------------7-8~---10-12~----------------7-8~------12~-------------------|
E|-7~--9--10~-------------------7~--9--10~----------------------------------|

Pre-solo (play four times):
e|---------------------|
B|---------------------|
G|-------------7~----9-|
D|-9---7---9---7~----9-|
A|-9---7---9---5~----7-|
E|-7---5---7-----------|

This is the guitar under the solo, play it twice before the solo starts:
e|---------------------x-x-x-x----------------------|
B|---------------------x-x-x-x----------------------|
G|-------------7~----9-x-x-x-x----------------------|
D|-9---7---9---7~----9-x-x-x-x-5-----5--7---2--2----|
A|-9---7---9---5~----7-x-x-x-x-5-----5--7---2--2----|
E|-7---5---7-----------x-x-x-x-3--p0-3--5---0--0----|

Solo (the first part is all natural harmonics):
e|--------------------------------------------------------------------------|
B|--------------------------------------------------------------------------|
G|--------------------------------------------------------------------------|
D|--------------------------------------------------------------------------|
A|---------------------------------------------------------------------3~---|
E|-4~--4~--3~----------4~--4~--3~--4~--4~--4~--4~--3~----------4~--4~-------|
       *   *               *   *       *       *   *               *   *
Play the * harmonics in the middle of the fret, not the end.

e|--------------------------------------------------------------------------|
B|-9b10-10p7h10p7---10p7h10p7---10p7h10p7---10h12p10h12p10------------------|
G|---------------9p7---------9p7---------9p7--------------11p9h11p9---------|
D|-----------------------------------------------------------------12p9h12--|
A|--------------------------------------------------------------------------|
E|--------------------------------------------------------------------------|

e|--------------------------------------------------------------------------|
B|--------------------------------------------------------------------------|
G|--------------------------------------------------------------------------|
D|-p9\7/9h12p9--------------------------------------------------------------|
A|------------12p9h12p9\7h9p7\5h7p5-----------------------------------------|
E|---------------------------------7~-tp------------------------------------|

e|----------------------------------------------------------12----tp--------|
B|----------------------------15b17r15p12h15p12h15b17~------15b17-tp--------|
G|-12b13r12p9h12p9-7~-9~----------------------------------------------------|
D|--------------------------------------------------------------------------|
A|--------------------------------------------------------------------------|
E|--------------------------------------------------------------------------|




Dear Rosemary

tabbed by epiphoneconnal 

Intro
e----------------------------------|
B------3---------3-----3---------3-|
G----4---4-----4-----4---4-----4---|
D--4-------4-2-----0-------0-2-----|
A----------------------------------|
E----------------------------------|

Intro Lead & Chorus Lead
e---------------------------------------------------------|
B---------------------------------------------------------|
G--11/9--9/7--7/6--6/7--7/6--6/4--4-2---4--6-6--7-7--9-9--|
D---------------------------------------------------------|
A---------------------------------------------------------|
E---------------------------------------------------------|

e---------------------------------------|
B---------------------------------------|
G--11/9--9/7--7/6--6/7--7/6--6/4--4-2---|
D---------------------------------------|
A---------------------------------------|
E---------------------------------------|

--------------------------------------------|
----------------------------12--------------|
---4--6-6--7-7--9-9--14-11------11--9br7-9--|
--------------------------------------------|
--------------------------------------------|
--------------------------------------------|


Intro Rhythm & Chorus
e----------------------------------|
B----------------------------------|
G--4-4-4-4-4-----------------------|
D--4-4-4-4-4-7-7-7-5-5-5-5-5-7-7-7-|
A--2-2-2-2-2-7-7-7-5-5-5-5-5-7-7-7-|
E------------5-5-5-3-3-3-3-3-5-5-5-|

Verse Rhythm 1
e-------------------------------------------------------------|
B-------------------------2-----------------------------------|
G-----4-------------4-----2-------4-------------4-------------|
D-----------2---------------------------2------------2-2-2-2--|
A--2----2-0-0--0--------0----0-2----2-0-0--0---------2-2-2-2--|
E----------------3----3----------------------3----3--0-0-0-0--|

Verse Rhythm 2         x3
e-----------------------:--------------------------|
B--7--7-5--5-3--3-5--7--:--7--7-5--5-3--3----------|
G--7--7-6--6-4--4-6--9--:--7--7-6--6-4--4-9-9-9-9--|
D--9--9-7--7-5--5-7--9--:--9--9-7--7-5--5-9-9-9-9--|
A-----------------------:-----------------7-7-7-7--|
E-----------------------:--------------------------|

Verse Lead
e---------------------------------|
B---------------------------------|
G---------------------------------|
D-------4-2-----------5-2---------|
A--2--5-----4--0----5-----4-0-----|
E----------------3------------7\--|


"Shall I go on...."
e------------------------------------------------|
B------------------------------------------------|
G--4--4-2--2-4--4-2--2-4--4-2--2-4-4-4-4-4-4-4-4-|
D--4--4-2--2-4--4-2--2-4--4-2--2-4-4-4-4-4-4-4-4-|
A--2--2-0--0-2--2-0--0-2--2-0--0-2-2-2-2-2-2-2-2-|
E------------------------------------------------|

Pre-Chorus & Bridge

G   A   Bm  A



Foo Fighters - White Limo

Album: ?
Instrument: Guitar
Tuning: eBGDAE

Tabbed By: Phil G


Intro

Substitute the last chord with the one between the bars at the end of the 2nd run through.

e||-----------------------------------------------------------------------|-----||
B||-----------------------------------------------------------------------|-----||
G||------8----------8---------------------8----------8--------------------|-----||   x2
D||----------10---------10---9--7-------------10--------------------------|-10--||
A||------------------------------------------------------7/9-9-10-9-7-10\-|--8--||
E||--7-7---7----7-7---7----7---7--7-7-7-7---7----7-7---7-5/7-7--8-7-5--8\-|-----||

  |---------------------pm low E------------------------|

Verse

Guitar 1 - Play intro
Guitar 2:

Remember to subsitute the last chord with the one between the bars at the end of the 2nd 
run through.
e||--------------------------------------------------------------------|------||
B||--------------------------------------------------------------------|------||
G||--------------------------------------------------------------------|------||
D||--------------------------------------------------------------------|--10--||   x4
A||--9-9-9-9-9-9-9-9-9-9-9-9-9-9-9-9-9-9-9-9-9-9-9-9--7/9-9-10-9-7-10--|---8--||
E||--7-7-7-7-7-7-7-7-7-7-7-7-7-7-7-7-7-7-7-7-7-7-7-7--5/7-7--8-7-5--8--|------||



Chorus

e||------------------------------------------------------------------||
B||------------------------------------------------------------------||
G||------------------------------------------------------------------||
D||------------------7---7-7-7-7-7-----------------------------------||    x2
A||--9---9-9-9-9-9---5---5-5-5-5-5---8---8-8-8-8-8---5---5-5-5-5-5---||
E||--7---7-7-7-7-7-------------------6---6-6-6-6-6---3---3-3-3-3-3---||


Guitar 1:

e||-------------------------------------------------------||
B||-------------------------------------------------------||
G||-------------------------------------------------------||
D||----------------7--7\----------------------------------||
A||--9--9\---------5--5\---------8--8---------5--5--5--5--||
E||--7--7\-----------------------6--6---------3--3--3--3--||

e||-------------------------------------------------------------||
B||-------------------------------------------------------------||
G||-------------------------------------------------------------||
D||----------------7--7\--------------------2-------------------||
A||--9--9\---------5--5\---------7--7-7-7---2--7/9-9-10-9-7-10--||
E||--7--7\-----------------------5--5-5-5---0--5/7-7--8-7-5--8--||

Guitar 2:

*This Gutiar has some awesome affect on it, but im not sure exactly what.*
e||--------------------------------------------------------||
B||-----------------------7--------------------------------||
G||---------8-----------------7--------7-------------------||
D||-------------9--------------------------8--------9------||
A||----------------------------------------------------10--||
E||--------------------------------------------------------||

e||--------------------------------------------------------||
B||-----------------------7--------------------------------||
G||---------8-----------------7--------6-------------------||
D||-------------9--------------------------7---------------||
A||--------------------------------------------------------||
E||--------------------------------------------------------||


Verse 2

Guitar 1 - Play intro
Guitar 2:

Remember to subsitute the last chord with the one between the bars at the end of the 2nd 
run through.
e||--------------------------------------------------------------------|------||
B||--------------------------------------------------------------------|------||
G||--------------------------------------------------------------------|------||
D||----------------------------------------------------------------10--|------||   x6
A||--9-9-9-9-9-9-9-9-9-9-9-9-9-9-9-9-9-9-9-9-9-9-9-9--7/9-9-10\9-9--8--|--10--||
E||--7-7-7-7-7-7-7-7-7-7-7-7-7-7-7-7-7-7-7-7-7-7-7-7--5/7-7--8\7-7-----|---8--||

Chorus:

e||------------------------------------------------------------------||
B||------------------------------------------------------------------||
G||------------------------------------------------------------------||
D||------------------7---7-7-7-7-7-----------------------------------||    x2
A||--9---9-9-9-9-9---5---5-5-5-5-5---8---8-8-8-8-8---5---5-5-5-5-5---||
E||--7---7-7-7-7-7-------------------6---6-6-6-6-6---3---3-3-3-3-3---||


Guitar 1:

Substitute the last chord with the riff between the bars at the end of the 2nd run through.

e||-------------------------------------------------------||
B||-------------------------------------------------------||
G||-------------------------------------------------------||
D||----------------7--7\----------------------------------||
A||--9--9\---------5--5\---------8--8---------5--5--5--5--||
E||--7--7\-----------------------6--6---------3--3--3--3--||
                                                                                         x2
e||---------------------------------------------------------|-----------------------||
B||---------------------------------------------------------|-----------------------||
G||---------------------------------------------------------|-----------------------||
D||----------------7--7\--------------------2--2-2-2-2-2-2--|---2-------------------||
A||--9--9\---------5--5\---------7--7-7-7---2--2-2-2-2-2-2--|---2--7/9-9-10-9-7-10--||
E||--7--7\-----------------------5--5-5-5---0--0-0-0-0-0-0--|---0--5/7-7--8-7-5--8--||

Guitar 2:

*This Guitar has some awesome affect on it, but im not sure exactly what.*
e||--------------------------------------------------------||
B||-----------------------7--------------------------------||
G||---------8-----------------7--------7-------------------||
D||-------------9--------------------------8--------9------||
A||----------------------------------------------------10--||
E||--------------------------------------------------------||

e||--------------------------------------------------------||
B||-----------------------7--------------------------------||
G||---------8-----------------7--------6-------------------||
D||-------------9--------------------------7--------6------||
A||-----------------------------------------------------7--||
E||--------------------------------------------------------||

Verse 2

Bridge

e||--------------------------------------------------------------||
B||--------------------------------------------------------------||
G||----------------1--1-1-1-1-1--4--4-4-4-4-4-4-4-4-4-4-4-4-4-4--||
D||--7--7-7-7-7-7--2--2-2-2-2-2--4--4-4-4-4-4-4-4-4-4-4-4-4-4-4--||  x3
A||--7--7-7-7-7-7--2--2-2-2-2-2--2--2-2-2-2-2-2-2-2-2-2-2-2-2-2--||
E||--5--5-5-5-5-5--0--0-0-0-0-0----------------------------------||

e||------------------------------------------------------------------||
B||------------------------------------------------------------------||
G||----------------1--1-1-1-1-1--4--4-4-4-4-4-4-4-4------------------||
D||--7--7-7-7-7-7--2--2-2-2-2-2--4--4-4-4-4-4-4-4-4------------------||
A||--7--7-7-7-7-7--2--2-2-2-2-2--2--2-2-2-2-2-2-2-2-7/9-9-10-9-7-10--||
E||--5--5-5-5-5-5--0--0-0-0-0-0---------------------5/7-7--8-7-5--8--||

Intro:

Substitute the last chord with the one between the bars at the end of the 2nd run through.

Guitar 1
e||-----------------------------------------------------------------------|------||
B||-----------------------------------------------------------------------|------||
G||------8----------8---------------------8----------8--------------------|------||
D||----------10---------10---9--7-------------10----------------------10--|------||    x2
A||------------------------------------------------------7/9-9-10-9-7--8--|--10--||
E||--7-7---7----7-7---7----7---7--7-7-7-7---7----7-7---7-5/7-7--8-7-5-----|---8--||

  |---------------------pm low E------------------------|

Guitar 2

Played with Guitar 1 on the second run through.
e||-----------------------------------------------------||
B||-----------------------------------------------------||
G||-----------------------------------------------------||
D||-----------------------------------------------------||
A||-----------------------------------------------------||
E||--7-7-7-7-7-7-7-7-7-7-7-7-7-7-7-7-7-7-7-7-7-7-7-7-7--||

Outro(Verse):

Guitar 1 - Play intro (quieter)
Guitar 2:

e||----------------------------------------------------------------------||
B||----------------------------------------------------------------------||
G||----------------------------------------------------------------------||
D||--10--------------------------------------------------------------10--||
A||---8--9-9-9-9-9-9-9-9-9-9-9-9-9-9-9-9-9-9-9-9-9-9-9--7/9-9-10-9-7--8--||
E||------7-7-7-7-7-7-7-7-7-7-7-7-7-7-7-7-7-7-7-7-7-7-7--5/7-7--8-7-5-----||

e||-----------------------------------------------------------------||
B||-----------------------------------------------------------------||
G||-----------------------------------------------------------------||
D||-----------------------------------------------------------------||
A||--9-9-9-9-9-9-9-9-9-9-9-9-9-9-9-9-9-9-9-9-9-9-9--7/9-9-10-9-7-9--||
E||--7-7-7-7-7-7-7-7-7-7-7-7-7-7-7-7-7-7-7-7-7-7-7--5/7-7--8-7-5-7--||

e||---------------------------------------------------||
B||---------------------------------------------------||
G||---------------------------------------------------||
D||---------------------------------------------------||
A||--7/9-9-10-9-7-9---7/9-9-10-9-7-9---7/9-9-10-9-7---||
E||--5/7-7--8-7-5-7---5/7-7--8-7-5-7---5/7-7--8-7-5---||

Hold and use wammy bar on last chord.

Gutiar 1 plays something like this in the second row of chords for Guitar 2:

e||-----------------------------------------------------------------||
B||-----------------------------------------------------------------||
G||--------------------------------------------------------------2--||
D||-----------------------------------------------------------------||
A||--9-9-9-9-9-9-9-9-9-9-9-9-9-9-9-9-9-9-9-9-9-9-9------------------||
E||--7-7-7-7-7-7-7-7-7-7-7-7-7-7-7-7-7-7-7-7-7-7-7------------------||


e||----------------------------------------------------||
B||----------------------------------------------------||
G||---------------2----------------2-------------------||
D||----------------------------------------------------||
A||----------------------------------------------------||
E||----------------------------------------------------||
*the notes should line up with the last 9,7 in the first 3 end riffs (if that makes sense).
Ive tried to line them up for you.


NOTES:

The second guitar in the Bridge does some awesome stuff but i
dont know exactly what it is.

You can replace one of the riffs throughout the song with:


e||----------------||
B||----------------||
G||--------------5-||
D||--2-4-4-5-4-2-3-||
A||--0-2-2-3-2-0---||
E||----------------||  ...depends what you prefer.

AND, this song can be played if Drop D as well.  Only the bottom E changes of course.
The Drop D method is easier for doing that ending riff.




Foo Fighters - Alandria

Tabbed by Howard2k3k


Tuning: Standard E



Intro:


-----------------------------------------------------------------------|
-----------------------------------------------------------------------|
-----------------------------------------------------------------------|
------6-4-6-----------6-4-------------6-4-6-----------6-4-6------------|
--4-7-------4/----4-7-----7-4-----4-7-------/4----4-7-------7b---------|
-----------------------------------------------------------------------|

The last note is supposed to bend slowly, listen to the track and you'll figure it out. 


Verse 1:

Main riff repeated 

(0:11)

-------------------------------|
-------------------------------|
--444--44444--444--33333-------|
--666--22222--222--44444-------|
--444--00000--222--44444-------|
--------------000--------------|
  ...  .....  ...  .....        Palm muted




Guitar 1:

Hard to hear, but it's something like this.

(0:40)

|------4--------0---------0---------0-----------|
|----4--4-----0---0-----4---0-----4---4---------|
|--6--------2---------4---------1---------------|
|-----------------------------------------------|  
|-----------------------------------------------|
|-----------------------------------------------|



Guitar 2:

|----------------------|
|-------------9--------|
|-------12b------------|  
|----------------------|  Repeat until chours.
|----------------------|
|----------------------|





Chours:

(0:48)

|-------------------------------------------------------------------------------------------------|
|-------------------------------------------------------------------------------------------------|
|--66666666----------------------4444------------66666666----------------------4444---555---------|
|--66666666--77777777--22222222--4444---444------66666666--77777777--22222222--4444---555---------|
|--44444444--77777777--22222222--2222---444------44444444--77777777--22222222--2222---333---------|
|------------55555555--00000000---------222----------------55555555--00000000---------------------|

(1:05)

|-----------------------------------------------------------|
|-----------------------------------------------------------|
|--66-66-6--------------------------------------------------|
|--66-66-6--44-44-44/6/77777--9999--------------------------|  x 2
|--44-44-4--44-44-44/6/77777--9999-10101010-----------------|
|-----------22-22-22/4/55555--7777-8-8-8-8------------------|

(1:21)

|---------------------------|
|--00000000-----------------|
|--11111111--333------------|  
|------------444------------|   x 2
|---------------------------|
|---------------------------|



Verse 2:

Guitar 1 (clean):

(1:29)

|--------------0---------------0----------------------|
|------0---0-----0-----0-----0---0--------------------|
|----1-------1-------1-----3--------------------------|
|-----------------------------------------------------|   x 4
|--4-----0--------------------------------------------|
|------------------0-----2----------------------------|


Guitar 2 (distorted):

(1:45)

|-----------------------------------------------|
|-----------------------------------------------|
|----4-----4---4-----4----3---3-----------------|
|-----------------------------------------------|   x 5
|--4---4-0---0---0------------------------------|
|------------------0--0-2---2-------------------|



(1:58)

|--------------9-------|
|---------12b----------|
|----------------------|  
|----------------------|  
|----------------------|
|----------------------|

Repeat until chours starts.


Chours 2:

(2:06)

|-------------------------------------------------------------------------------------------------|
|-------------------------------------------------------------------------------------------------|
|--66666666----------------------4444------------66666666----------------------4444---555---------|
|--66666666--77777777--22222222--4444---444------66666666--77777777--22222222--4444---555---------|
|--44444444--77777777--22222222--2222---444------44444444--77777777--22222222--2222---333---------|
|------------55555555--00000000---------222----------------55555555--00000000---------------------|


(2:22)

|-----------------------------------------------------------|
|-----------------------------------------------------------|
|--66-66-6--------------------------------------------------|
|--66-66-6--44-44-44/6/77-77-7--9999-10101010---------------|  x 2
|--44-44-4--44-44-44/6/77-77-7--9999-10101010---------------|
|-----------22-22-22/4/55-55-7--7777-8-8-8-8----------------|






Bridge:

(2:39)

|------------------------------------------------------------------------------------------------|
|------------------------------------------------------------------------------------------------|
|--66-66-66----------------------4444----------------66-66-66----------------------4444--5555----|
|--66-66-66--77-77-77--22-22-22--4444--444-----------66-66-66--77-77-77--22-22-22--4444--5555----|
|--44-44-44--77-77-77--22-22-22--2222--444-----------44-44-44--77-77-77--22-22-22--2222--3333----|
|------------55-55-55--00-00-00--------222---------------------55-55-55--00-00-00----------------|




"Outro":

(2:55)

|-------------------------------|
|-------------------------------|
|--444--44444--444--33333-------|
|--666--22222--222--44444-------|  x 10
|--444--00000--222--44444-------|
|--------------000--------------|
  ...  .....  ...  .....        Palm muted



(3:20)

|----------------------|
|-------------9--------|
|-------12b------------|  
|----------------------|  Comes in the 7th time.
|----------------------|
|----------------------|


(3:29)

|--------------9-------|
|---------12b----------|
|----------------------|  
|----------------------|  Comes in the 9th time.
|----------------------|
|----------------------|

(3:37)


|-------------------------------------------------------------------------------------------------|
|-------------------------------------------------------------------------------------------------|
|--66666666----------------------4444------------66666666----------------------4444---555---------|
|--66666666--77777777--22222222--4444---444------66666666--77777777--22222222--4444---555---------|
|--44444444--77777777--22222222--2222---444------44444444--77777777--22222222--2222---333---------|
|------------55555555--00000000---------222----------------55555555--00000000---------------------|


(3:53)

|-----------------------------------------------------------|
|-----------------------------------------------------------|
|--66-66-6--------------------------------------------------|
|--66-66-6--44-44-44/6/77-77-7--9999-10101010---------------|
|--44-44-4--44-44-44/6/77-77-7--9999-10101010---------------|
|-----------22-22-22/4/55-55-7--7777-8-8-8-8----------------|



(4:10)

|------------------------------------------------------------|
|------------------------------------------------------------|
|------------------------------------------------------------|
|------6-4-6------6-4-----------6-4--------------------------|  x 2
|--4-7--------4-7------7-4--4-7-----7-4---9999-10101010------|
|-----------------------------------------7777-8-8-8-8-------|





-------------------------------------------------------------------------------
                             These Days - Foo Fighters
-------------------------------------------------------------------------------
Tabbed by: Jimbompaleen
Email:poo_face_63@hotmail.com

Tuning: Standard

Here's what I play, I'm fairly certain it's correct.
I can definitely hear that A note in the intro that other tabs don't seem to have.
If you find any mistakes, feel free to let me know.

Guitar 1 - Dave Grohl
Guitar 2 - Chris Shiflett
Guitar 3 - Pat Smear

Intro / Verse  (Repeat as much as you need to)
(Guitar 1)
e|--------------------------------------------------|
B|--------------------------------------------------|
G|--------------------------------------------------|
D|-------11---------11----------0----------0--------|
A|--0----------0----------12---------12-------------|
E|----12----12---12----12----12---12----12---12-----|

(Guitar 2) (Comes in after first verse)
e|--------------------------------------------------|
B|--------------------------------------------------|
G|--2--2--2--2--2--2--2--2--------------------------|
D|--2--2--2--2--2--2--2--2--------------------------|
A|--0--0--0--0--0--0--0--0--------------------------|
E|--------------------------------------------------|



Pre-Chorus 1
(Guitar 1 & 2)
e|------------------------------------------------------------------------------|
B|------------------------------------------------------------------------------|
G|--------0-----------------------------0-----------------------------0---------|
D|----2------2---2-------0----------4------4---4-------0----------2------2---2--|
A|--3---3------3-----2------2---2-5---5------5-----4------4---4-3---3------3----|
E|-----------------3---3------3------------------5---5------5-------------------|

e|--------3-3-3-3-3-3-3-3-----|
B|--------3-3-3-3-3-3-3-3-----|
G|--------0-0-0-0-0-0-0-0-----|
D|--------0-0-0-0-0-0-0-0-----|
A|---2----2-2-2-2-2-2-2-2-----|
E|-3---3--3-3-3-3-3-3-3-3-----|



Chorus x 2
(Guitar 1)
e|----------------0--0-0-0-0--0-0--0-0-0-0------3--3-3-3-3--3-3--3-3-3-3---|
B|----------------2--2-2-2-2--2-2--2-2-2-2-0----3--3-3-3-3--3-3--3-3-3-3---|
G|----------------2--2-2-2-2--2-2--2-2-2-2-0-0--0--0-0-0-0--0-0--0-0-0-0---|
D|----------------2--2-2-2-2--2-2--2-2-2-2-0-2--2--2-2-2-2--2-2--2-2-2-2-0-|
A|----------------0--0-0-0-0--0-0--0-0-0-0-0-2--2--2-2-2-2--2-2--2-2-2-2-0-|
E|-------------------------------------------0--0--0-0-0-0--0-0--0-0-0-0-0-|
"Easy for you to say!"

e|----3--3-3-3-3--3-3--3-3-3-3------2--2-2-0-2--2-2--2-2-2-2----| Quickly cut off the
B|----3--3-3-3-3--3-3--3-3-3-3---3--3--3-3-3-3--3-3--3-3-3-3----| last D when repeating
G|-0--0--0-0-0-0--0-0--0-0-0-0-0-2--2--2-2-2-2--2-2--2-2-2-2----| the Chorus
D|-2--2--2-2-2-2--2-2--2-2-2-2-0-0--0--0-0-0-0--0-0--0-0-0-0----|
A|-3--3--3-3-3-3--3-3--3-3-3-3-0--------------------------------|
E|--------------------------------------------------------------|




(Guitar 2)
e|-------------------------------------------------------------------------------|
B|-------------------------------------------------------------------------------|
G|---------------------------------------------12--12-12--12--12-12--12-12-12-12-|
D|---------------11--11-11-9-7--7-7--7-7-7-7---12--12-12--12--12-12--12-12-12-12-|
A|---------------------------------------------10--10-10--10--10-10--10-10-10-10-|
E|-------------------------------------------------------------------------------|
"Easy for you to say!"

e|------------------------------------------------------------------------------|
B|------------------------------------------------------------------------------|
G|-12--12--12-12--12--12-12--12-12-12-12--11--11--11-11--11--11-11--11-11-11-11-|
D|-10--10--10-10--10--10-10--10-10-10-10--x---x---x--x---x---x--x---x--x--x--x--|
A|-10--10--10-10--10--10-10--10-10-10-10--9---9---9--9---9---9--9---9--9--9--9--|
E|-8---8---8--8---8---8--8---8--8--8--8-----------------------------------------|



(Guitar 3)
e|-----------------------------------------------------------------------|
B|-----------------------------------------------------------------------|
G|-------------------------------------------9--9--9-9-9-9--9-9--9-9-9-9-|
D|---------------11--11-11-9-7--7-7--7-7-7-7-9--9--9-9-9-9--9-9--9-9-9-9-|
A|-------------------------------------------7--7--7-7-7-7--7-7--7-7-7-7-|
E|-----------------------------------------------------------------------|
"Easy for you to say!"

e|---0--0-0-0-0--0-0--0-0-0-0-0--0--0-0-0-0--0-0--0-0-0-0----------------|
B|---1--1-1-1-1--1-1--1-1-1-1-3--3--3-3-3-3--3-3--3-3-3-3----------------|
G|-0-0--0-0-0-0--0-0--0-0-0-0-0--0--0-0-0-0--0-0--0-0-0-0----------------|
D|-2-2--2-2-2-2--2-2--2-2-2-2-4--4--4-4-4-4--4-4--4-4-4-4----------------|
A|-3-3--3-3-3-3--3-3--3-3-3-3-5--5--5-5-5-5--5-5--5-5-5-5----------------|
E|-----------------------------------------------------------------------|



Post Chorus
(Guitar 1)
e|------5--5-5-5-5--5-5--5-5-5-5----5--5-5-5-5--5-5--5-5-5-5---|
B|------5--5-5-5-5--5-5--5-5-5-5----5--5-5-5-5--5-5--5-5-5-5---|
G|------6--6-6-6-6--6-6--6-6-6-6----6--6-6-6-6--6-6--6-6-6-6---|
D|---7--7--7-7-7-7--7-7--7-7-7-7-7--7--7-7-7-7--7-7--7-7-7-7---|
A|---7--7--7-7-7-7--7-7--7-7-7-7-7--7--7-7-7-7--7-7--7-7-7-7---|
E|---5--5--5-5-5-5--5-5--5-5-5-5-5--5--5-5-5-5--5-5--5-5-5-5---|
"..these days!"


(Guitar 2)
e|-----------------------------------------------------------------------------------|
B|-----------------------------------------------------------------------------------|
G|-----------------------------------------------------------------------------------|
D|---11--11--11-11-11-12--12-12--12-12-12-12-11--11--11-11-11-12--12-12--12-12-12-12-|
A|-----------------------------------------------------------------------------------|
E|-----------------------------------------------------------------------------------|
"..these days!"


(Guitar 3)
e|-------------------------------------------------------------------|
B|-------------------------------------------------------------------|
G|---2-2-2-2-2-2-2-2-7-7-7-7-7-7-7-7-2-2-2-2-2-2-2-2-7-7-7-7-7-7-7-7-|
D|---2-2-2-2-2-2-2-2-7-7-7-7-7-7-7-7-2-2-2-2-2-2-2-2-7-7-7-7-7-7-7-7-|
A|---0-0-0-0-0-0-0-0-5-5-5-5-5-5-5-5-0-0-0-0-0-0-0-0-5-5-5-5-5-5-5-5-|
E|-------------------------------------------------------------------|
"..these days"


Verse x 8


Pre-Chorus 2
(Guitar 1)
e|----3--3-3-3-3--3-3--3-3-3-3----2--2-2-2-0--0-0--0-0-0-0----3--3-3-3-3--3-3-|
B|----3--3-3-3-3--3-3--3-3-3-3-3--3--3-3-3-2--2-2--2-2-2-2----3--3-3-3-3--3-3-|
G|-0--0--0-0-0-0--0-0--0-0-0-0-2--2--2-2-2-2--2-2--2-2-2-2-0--0--0-0-0-0--0-0-|
D|-2--2--2-2-2-0--0-0--0-0-0-0-0--0--0-0-0-2--2-2--2-2-2-2-2--2--2-2-2-0--0-0-|
A|-3--3--3-3-3-2--2-2--2-2-2-2-------------0--0-0--0-0-0-0-3--3--3-3-3-2--2-2-|
E|-------------3--3-3--3-3-3-3-----------------------------------------3--3-3-|

e|-3-3-3-3-3-3-3-------|
B|-3-3-3-3-3-3-3-------|
G|-0-0-0-0-0-0-0-------|
D|-0-0-0-0-0-0-0-------|
A|-2-2-2-2-2-2-2-------|
E|-3-3-3-3-3-3-3-------|


(Guitar 2)
e|------------------------------------------------------------------------------|
B|------------------------------------------------------------------------------|
G|--------0-----------------------------0-----------------------------0---------|
D|----2------2---2-------0----------4------4---4-------0----------2------2---2--|
A|--3---3------3-----2------2---2-5---5------5-----4------4---4-3---3------3----|
E|-----------------3---3------3------------------5---5------5-------------------|

e|--------3-3-3-3-3-3-3-3-----|
B|--------3-3-3-3-3-3-3-3-----|
G|--------0-0-0-0-0-0-0-0-----|
D|--------0-0-0-0-0-0-0-0-----|
A|---2----2-2-2-2-2-2-2-2-----|
E|-3---3--3-3-3-3-3-3-3-3-----|


(Guitar 3)
e|-----------------------------------------0--0-0--0-0-0-0---------------------|
B|----1--1-1-1-1--1-1--1-1-1-1-3--3--3-3-3-2--2-2--2-2-2-0----1--1-1-1-1--1-1--|
G|-0--0--0-0-0-0--0-0--0-0-0-0-2--2--2-2-2-2--2-2--2-2-2-0-0--0--0-0-0-0--0-0--|
D|-2--2--2-2-2-0--0-0--0-0-0-0-0--0--0-0-0-2--2-2--2-2-2-0-2--2--2-2-2-0--0-0--|
A|-3--3--3-3-3-2--2-2--2-2-2-2-------------0--0-0--0-0-0-0-3--3--3-3-3-2--2-2--|
E|-------------3--3-3--3-3-3-3-----------------------------------------3--3-3--|

e|---------------------|
B|-1-1-1-1-1-1-1-------|
G|-0-0-0-0-0-0-0-------|
D|-0-0-0-0-0-0-0-------|
A|-2-2-2-2-2-2-2-------|
E|-3-3-3-3-3-3-3-------|


Chorus x 2

Post Chorus

Extended Pre-Chorus 2

Intro x 6 (Only guitar 1)

Part of Pre-Chorus
(Guitar 1)
e|---------------3~---|
B|---------------3~---|
G|-------0-------0~---|
D|---2------2----0~---|
A|-3---3------3--2~---|
E|---------------3~---|


Chorus x 2

Post chorus x 2
Second time through Post Chorus, Guitar 2 plays this twice:
e|---------------------------------|
B|--5------10------5------3--------|
G|--7b9----12b14---7b9----5b7------|
D|---------------------------------|
A|---------------------------------|
E|---------------------------------|





Back & Forth
Foo Fighters
Wasting Light

tabbed by epiphoneconnal

Tabbed by ear, so it should be fairly accurate. Not 100% on the palm-muted verse,
but it sounds great when you play along with the song.

e----------------------------------------------------|
B----------------------------------------------------|
G----------------------------------------------------|
D----------------------------------------------------|
A--3-4-4-5-5-6-6/7--7-7-7-7-7-7-7-7-7-7-7-7-7-7-7-7--|
E--1-2-2-3-3-4-4/5--5-5-5-5-5-5-5-5-5-5-5-5-5-5-5-5--|
                      PM...........

Verse
e-------------------------------------------------------------------|
B-------------------------------------------------------------------|
G-------------------------------------------------------------------|
D--7--7-7-7-6-6-6-6-4-4-4-2-2-2-2-5-5-5-5-5-4-4-4-4-2-2-2-4-4-0-0---|
A--0--0-0-0-0-0-0-0-0-0-0-0-0-0-0-3-3-3-3-3-3-3-3-3-3-3-3-3-3-3-3-5-|
E-----------------------------------------------------------------3-|
      PM...........................................................

e-------------------------------------------------------------------|
B-------------------------------------------------------------------|
G-------------------------------------------------------------------|
D----------------------------------7-7-7-7-7-7-7-7-7-7-7-7-7-7-7-7--|
A--5-5-5-5-7-7-7-7-5-5-5-7-7-7-7-7-5-5-5-5-5-5-5-5-5-5-5-5-5-5-5-5--|
E--3-3-3-3-3-3-3-3-3-3-3-3-3-3-3-3----------------------------------|
   PM.............................................................


e-------------------------------------------------------------------|
B-------------------------------------------------------------------|
G-------------------------------------------------------------------|
D--7--7-7-7-6-6-6-6-4-4-4-2-2-2-2-5-5-5-5-5-4-4-4-4-2-2-2-4-4-0-0---|
A--0--0-0-0-0-0-0-0-0-0-0-0-0-0-0-3-3-3-3-3-3-3-3-3-3-3-3-3-3-3-3-5-|
E-----------------------------------------------------------------3-|
      PM.........................   ...............................
                                                                    x2
e-------------------------------------------------------------------:
B-------------------------------------------------------------------:
G-------------------------------------------------------------------:
D----------------------------------7-7-7-7-7-7-7-7------------------:
A--5-5-5-5-7-7-7-7-5-5-5-7-7-7-7-7-5-5-5-5-5-5-5-5--3-4-4-5-5-6-6/7-:
E--3-3-3-3-3-3-3-3-3-3-3-3-3-3-3-3------------------1-2-2-3-3-4-4/5-:
   PM.............................   ............

e-------------------------------------------------------------------|
B-------------------------------------------------------------------|
G-------------------------------------------------------------------|
D--7--7-7-7-6-6-6-6-4-4-4-2-2-2-2-5-5-5-5-5-4-4-4-4-2-2-2-4-4-0-0---|
A--0--0-0-0-0-0-0-0-0-0-0-0-0-0-0-3-3-3-3-3-3-3-3-3-3-3-3-3-3-3-3-5-|
E-----------------------------------------------------------------3-|
      PM.........................   ...............................

e-------------------------------------------------------------------|
B-------------------------------------------------------------------|
G-------------------------------------------------------------------|
D----------------------------------7-7-7-7-7-7-7-7-7-7-7-7-7-7-7-7--|
A--5-5-5-5-7-7-7-7-5-5-5-7-7-7-7-7-5-5-5-5-5-5-5-5-5-5-5-5-5-5-5-5--|
E--3-3-3-3-3-3-3-3-3-3-3-3-3-3-3-3----------------------------------|
   PM..............................crescendo

Pre Chorus
"You got alot of nerve"
A-----------------------------------------|
E--5-5--4-4--3-3--4-4--5-5--4-4--3-3--4-4-|

"Now show a little backbone"
D--3-3-3-3-3-3-3-3-5-5-5-5-5-5-5-5--|
A--3-3-3-3-3-3-3-3-5-5-5-5-5-5-5-5--|
E--1-1-1-1-1-1-1-1-3-3-3-3-3-3-3-3--|

Chorus
e------------------------------------------------------------------|
B------------------------------------------------------------------|
G--5-5-5-5-5-5-5-5-----------------5-5-5-5-5-5-5-5-----------------|
D--5-5-5-5-5-5-5-5-3-3-3-3-3-3-3-3-5-5-5-5-5-5-5-5-3-3-3-3-3-3-3-3-|
A--3-3-3-3-3-3-3-3-3-3-3-3-3-3-3-3-3-3-3-3-3-3-3-3-3-3-3-3-3-3-3-3-|
E------------------1-1-1-1-1-1-1-1-----------------1-1-1-1-1-1-1-1-|

e------------------------------------------|
B------------------------------------------|
G--7-7-7-7-7-7-7-7-10-10-10-10-10-10-10-10-|
D--7-7-7-7-7-7-7-7-10-10-10-10-10-10-10-10-|
A--5-5-5-5-5-5-5-5-8--8--8--8--8--8--8--8--|
E------------------------------------------|

(Right after the chorus)
A--3-4-4-5-5-6-7-|
E--1-2-2-3-3-4-5-|

Verse 2
e------------------------------------------------------------------|
B------------------------------------------------------------------|
G------------------------------------------------------------------|
D--7-7-7-7-6-6-6-6-4-4-4-2-2-2-2-5-5-5-5-5-4-4-4-4-2-2-2-4-4-0-0---|
A--0-0-0-0-0-0-0-0-0-0-0-0-0-0-0-3-3-3-3-3-3-3-3-3-3-3-3-3-3-3-3-5-|
E----------------------------------------------------------------3-|
         PM.....................       .........................

e-------------------------------------------------------------------:
B-------------------------------------------------------------------:
G-------------------------------------------------------------------:
D----------------------------------7-7-7-7-7-7-7-7------------------:
A--5-5-5-5-7-7-7-7-5-5-5-7-7-7-7-7-5-5-5-5-5-5-5-5--3-4-4-5-5-6-6/7-:
E--3-3-3-3-3-3-3-3-3-3-3-3-3-3-3-3------------------1-2-2-3-3-4-4/5-:
       PM.........................     ...........

e------------------------------------------------------------------|
B------------------------------------------------------------------|
G------------------------------------------------------------------|
D--7-7-7-7-6-6-6-6-4-4-4-2-2-2-2-5-5-5-5-5-4-4-4-4-2-2-2-4-4-0-0---|
A--0-0-0-0-0-0-0-0-0-0-0-0-0-0-0-3-3-3-3-3-3-3-3-3-3-3-3-3-3-3-3-5-|
E----------------------------------------------------------------3-|
         PM.....................       .........................

e-------------------------------------------------------------------|
B-------------------------------------------------------------------|
G-------------------------------------------------------------------|
D----------------------------------7-7-7-7-7-7-7-7-7-7-7-7-7-7-7-7--|
A--5-5-5-5-7-7-7-7-5-5-5-7-7-7-7-7-5-5-5-5-5-5-5-5-5-5-5-5-5-5-5-5--|
E--3-3-3-3-3-3-3-3-3-3-3-3-3-3-3-3----------------------------------|
         PM........................crescendo

Repeat Pre-Chorus
Repeat Chorus

Solo Section
Guitar 1
e-------------------------------------------|
B--10----9----7----5----8----7----5----7----|
G--12b---11b--9b---7b---10b--9b---7b---9b---|

e-------------------------------------------------------------|
B--12----13---15---17---7----9----10----6--7--7--8---8---9----|
G--14b---15b--17b--19b--9b---11b--12b---8b-9b-9b-10b-10b-11b--|

e-------------------------------------------|
B--10----9----7----5----8----7----5----7----|
G--12b---11b--9b---7b---10b--9b---7b---9b---|

e-------------------------------------------|
B--12----13---15---17---7----9----10----12--|
G--14b---15b--17b--19b--9b---11b--12b---14b-|

Guitar 2 (comes in after 16 measures)
e--9-----7----5----4----12----10---9----7----|
B--12b---10b--8b---7b---15b---13b--12b--10b--|
G--------------------------------------------|

e--12----14---15---15----5----7----9----10------|
B--15b---17b--18b--18b---8b---10b--12b--13b-----|
G-----------------------------------------------|

Repeat Pre-Chorus
Repeat Chorus

A--3-4-4-5-5-6-7-|
E--1-2-2-3-3-4-5-|





A Matter of Time
Foo Fighters
Wasting Light

tabbed by epiphoneconnal

Tabbed by ear, should be fairly accurate.

***Note: The end of sections are shown with a |
         Sections to be repeated end with a :
Intro
e---------------------------------------------------------|
B---------------------------------------------------------|
G----9------9--9-9---------------9------9--9-9------------|
D----9------9--9-9---------------9------9--9-9------------|
A----7------7--7-7-2--4/6\5------7------7--7-7-2--4/6\5---|
E--0----0-0--------0--2/3\2p0--0----0-0--------0--2/3\2p0-|

e--------------------------------------------------------|
B--------------------------------------------------------|
G----9------9--9-9---------------9------9--9-9-----------|
D----9------9--9-9---------------9------9--9-9-----------|
A----7------7--7-7-2--4/6\5------7------7--7-7-----------|
E--0----0-0--------0--2/3\2p0--0----0-0--------0---------|

Verse
e------------------------------------------------------------------|
B------------------------------------------------------------------|
G------------------------------------------------------------------|
D--9-9-9-9-9-9-9-9-9-9-9-9-9-9-9-9-9-9-9-9-9-9-9-9-9-9-9-9-9-9-9-9-|
A--7-7-7-7-7-7-7-7-7-7-7-7-7-7-7-7-6-6-6-6-6-6-6-6-6-6-6-6-6-6-6-6-|
E------------------------------------------------------------------|
   PM.............................................................
e------------------------------------------------------------------|
B------------------------------------------------------------------|
G------------------------------------------------------------------|
D--7-7-7-7-7-7-7-7-7-7-7-7-7-7-7-7-7-7-7-7-7-7-7-7-7-7-7-7---------|
A--5-5-5-5-5-5-5-5-5-5-5-5-5-5-5-5-4-4-4-4-4-4-4-4-4-4-4-4-4/5\4---|
E----------------------------------------------------------2/3\2p0-|
   PM.....................................................
e------------------------------------------------------------------|
B------------------------------------------------------------------|
G------------------------------------------------------------------|
D--5-5-5-5-5-5-5-5-5-5-5-5-5-5-5-5-9-9-9-9-9-9-9-9-9-9-9-9-9-9-9-9-|
A--3-3-3-3-3-3-3-3-3-3-3-3-3-3-3-3-7-7-7-7-7-7-7-7-7-7-7-7-7-7-7-7-|
E------------------------------------------------------------------|
   PM.............................................................
                                                                  x2
e------------------0-------0-----------------------0---------------:
B----------5---0-------0-------0-----------7---0-------0---7---0---:
G------6-------------------------------9---------------------------:
D--7-------------------------------10------------------------------:
A------------------------------------------------------------------:
E------------------------------------------------------------------:

e-------------------------------|
B-------------------------------|
G-------------------------------|
D--9--9--9-9-9-9---9-9--9-9-----|
A--7--7--7-7-7-7---7-7--7-7-----|
E--0--0--0-0-0-0---0-0--0-0-12\-|

(Guitar 2/Verse 2 only)
e---------------12----------11----------11----------10----------10---------|
B--------12-----------------------12-------------------10-12-10----10---10-|
G-----13----13-----13----13----13----13----13----13-------------------9----|
D--14-----------------14----------------------14---------------------------|
A--------------------------------------------------------------------------|
E--------------------------------------------------------------------------|

e--9--------9---------------8--------8---0----7-------7---0-----|
B------10-----------------------10---------------9----------9---|
G----9----9---9-11/12\11p9----9----9---9---9---9---9---9--------|
D---------------------------------------------------------------|
A---------------------------------------------------------------|
E---------------------------------------------------------------|

                                     x2
e----------0---0------------0--------:-------------------------------|
B------5-0---0---0------7-0---0-7-0--:-------------------------------|
G----6----------------9--------------:-------------------------------|
D--7---------------10----------------:--9--9--9-9-9-9---9-9--9-9-----|
A------------------------------------:--7--7--7-7-7-7---7-7--7-7-----|
E------------------------------------:--0--0--0-0-0-0---0-0--0-0-12\-|

Pre-Chorus
(Guitar 1)
e-----------------------------------------------------------------|
B-----------------------------------------------------------------|
G-----------------------------------------------------------------|
D--2--4--5--7--9---2--4--5--7--9----------------------------------|
A--0--2--3--5--7---0--2--3--5--7---2--4--6--7--9---2--4--6--7--9--|
E----------------------------------0--2--4--5--7---0--2--4--5--7--|

e----------------------------------------------------|
B----------------------------------------------------|
G----------------------------------------------------|
D--2--4--5--7--9---2--4--5--7--9---------------4--6--|
A--0--2--3--5--7---0--2--3--5--7---2--4--6--7--2--4--|
E----------------------------------0--2--4--5--------|

(Guitar 2)
e--0h2p0h2p0h2p0h2p0h2p0h2p0h2p0h2p0h2p0h2p0h2p0h2p0h2p0h2p0h2p0h2p--|
B--------------------------------------------------------------------|

e--2h4p2h4p2h4p2h4p2h4p2h4p2h4p2h4p2h4p2h4p2h4p2h4p2h4p2h4p2h4p2h4p-|
B-------------------------------------------------------------------|

e--0h2p0h2p0h2p0h2p0h2p0h2p0h2p0h2p0h2p0h2p0h2p0h2p0h2p0h2p0h2p0h2p--|
B--------------------------------------------------------------------|

D-----4--6--7--9--11-|
A--2-----------------|
E--0--2--4--5--7--9--|

(Guitar 3)
e------------------------------------------------------|
B-----7-7--7-7--7-7-7--7-7------7-7--7-7--7-7-7--7-7---|
G-----9-7--9-7--9-9-7--9-7------9-7--9-7--9-9-7--9-7---|
D-----7-7--7-7--7-7-7--7-7------7-7--7-7--7-7-7--7-7---|
A--0-------------------------0-------------------------|
E------------------------------------------------------|

e----------------------------------------------------------------|
B-----9--9--9--9--9--9--9--9--9------9--9--9--9--9--9--9--9--9---|
G-----11-9--11-9--11-11-9--11-9------11-9--11-9--11-11-9--11-9---|
D-----9--9--9--9--9--9--9--9--9------9--9--9--9--9--9--9--9--9---|
A----------------------------------------------------------------|
E--0------------------------------0------------------------------|

e------------------------------------------------------|
B-----7-7--7-7--7-7-7--7-7------7-7--7-7--7-7-7--7-7---|
G-----9-7--9-7--9-9-7--9-7------9-7--9-7--9-9-7--9-7---|
D-----7-7--7-7--7-7-7--7-7------7-7--7-7--7-7-7--7-7---|
A--0-------------------------0-------------------------|
E------------------------------------------------------|

D-----4--6--7--9--11-|
A--2-----------------|
E--0--2--4--5--7--9--|

Chorus
e-------------------------------------------------------------------|
B-------------------------------------------------------------------|
G--7-7-7-7-7-7-7-7-7-7-7-7-7-7-7-7-6-6-6-6-6-6-6-6-6-6-6-6-6-6-6-6--|
D--7-7-7-7-7-7-7-7-7-7-7-7-7-7-7-7-7-7-7-7-7-7-7-7-7-7-7-7-7-7-7-7--|
A--5-5-5-5-5-5-5-5-5-5-5-5-5-5-5-5-4-4-4-4-4-4-4-4-4-4-4-4-4-4-4-4--|
E-------------------------------------------------------------------|

e-------------------------------------------------------------------|
B-------------------------------------------------------------------|
G--5-5-5-5-5-5-5-5-5-5-5-5-5-5-5-5-------------------------4---6----|
D--5-5-5-5-5-5-5-5-5-5-5-5-5-5-5-5-2-2-2-2-2-2-2-2-2-2-2-2----------|
A--3-3-3-3-3-3-3-3-3-3-3-3-3-3-3-3-2-2-2-2-2-2-2-2-2-2-2-2-2---4----|
E----------------------------------0-0-0-0-0-0-0-0-0-0-0-0----------|

e-------------------------------------------------------------------|
B-------------------------------------------------------------------|
G--7-7-7-7-7-7-7-7-7-7-7-7-7-7-7-7-6-6-6-6-6-6-6-6-6-6-6-6-6-6-6-6--|
D--7-7-7-7-7-7-7-7-7-7-7-7-7-7-7-7-7-7-7-7-7-7-7-7-7-7-7-7-7-7-7-7--|
A--5-5-5-5-5-5-5-5-5-5-5-5-5-5-5-5-4-4-4-4-4-4-4-4-4-4-4-4-4-4-4-4--|
E-------------------------------------------------------------------|

**1st Chorus ending
e-------------------------------------------------------------------|
B-------------------------------------------------------------------|
G--5-5-5-5-5-5-5-5-5-5-5-5-5-5-5-5---9------9--9-9------------------|
D--5-5-5-5-5-5-5-5-5-5-5-5-5-5-5-5---9------9--9-9------------------|
A--3-3-3-3-3-3-3-3-3-3-3-3-3-3-3-3---7------7--7-7-2--4/6\5---------|
E----------------------------------0----0-0--------0--2/3\2p0-------|

**2nd Chorus ending
e-------------------------------------------------------------------|
B-------------------------------------------------------------------|
G--5-5-5-5-5-5-5-5-5-5-5-5-5-5-5-5----------------------------------|
D--5-5-5-5-5-5-5-5-5-5-5-5-5-5-5-5-2-2-2-2-2-2-2-2-2-2-2-2----------|
A--3-3-3-3-3-3-3-3-3-3-3-3-3-3-3-3-2-2-2-2-2-2-2-2-2-2-2-2-4/5\4----|
E----------------------------------0-0-0-0-0-0-0-0-0-0-0-0-2/3\2p0--|

Bridge
(Guitar 1)
e--------------------------------------------|
B--------------------------------------------|
G--------------------------------------------|
D--2--4--5--7--4/5\4----2--4--5--7--4/5\4----|
A--0--2--3--5--2/3\2p0--0--2--3--5--2/3\2p0--|
E--------------------------------------------|

                                            x2
e--------------------------------------------:
B--------------------------------------------:
G--------------------------------------------:
D--------------------------------------------:
A--2--4--6--7--4/5\4----2--4--6--7--4/5\4----:
E--0--2--4--5--2/3\2p0--0--2--4--5--2/3\2p0--:

e--------------------------------------------|
B--------------------------------------------|
G--------------------------------------------|
D--2--4--5--7--4/5\4----2--4--5--7--4/5\4----|
A--0--2--3--5--2/3\2p0--0--2--3--5--2/3\2p0--|
E--------------------------------------------|

(Guitar 2)
e--0--0--0--0--0--0--0--0--0--0--0--0--0--0--0--0---------------|
B--13-13-13-12-12-12-10-10-10-10-13-13-12-12-10-10--play again--|

                                                               x2
e--0--0--0--0--0--0--0--0--0--0--0--0--0--0--0--0---------------:
B--12-12-12-10-10-10-9--9--9--9--12-12-10-10-9--9---play again--:

e--0--0--0--0--0--0--0--0--0--0--0--0--0--0--0--0---------------|
B--13-13-13-12-12-12-10-10-10-10-13-13-12-12-10-10--play again--|

**Both guitars bridge ending
e--------------------------------------------------------|
B--------------------------------------------------------|
G----9------9--9-9---------------9------9--9-9----4--6---|
D----9------9--9-9---------------9------9--9-9-----------|
A----7------7--7-7-2--4/6\5------7------7--7-7----2--4---|
E--0----0-0--------0--2/3\2p0--0----0-0--------0---------|





Foo Fighters - 'Miss the Misery'
From 'Wasting Light'
Standard Tuning
Tabbed by jjhand for Ultimate-Guitar.com

Thanks to the other tab of this song by Eli4s that I used as a reference.
Its a great rock song with some little twists thrown in, so please
rate or comment.


Intro - Heavy Flanger
e--0------------------------------------------------|
b--0---------0--2--2b3r-0-----------0--2--2b3r-0----|
G--0---------0--2--2b3r-0-----------0--2--2b3r-0----|
D--2------------------------------------------------|
A--2------------------------------------------------|
E--0------------------------------------------------|



Main Riff - 6 beats per bar (Flange off) played 2x

                 sometimes B string is heard during this riff
e-----------------------------|-------------------------|
b----------------(0-2--2b3r-0)|-------------------------|
G-----------------0-2--2b3r-0-|-------------------------|
D-2---2-----------------------|-2---2-------------------|
A-2---2------0----------------|-2---2------0----5-7-7-5-|
E-0---0-3~--------------------|-0---0-3~----------------|



Guitar 2 (adds to Main riff, starting 3rd time through)
e-----------------------|---------------------|
b-----------------------|---------------------|
G-12---11----9----7-----|-(7)-----------------|
D--x----x----x----x-----|---------------------|
A-10----9----7----5-----|-(5)---------5-7-7-5-|
E-----------------------|---------------------|



_____________________________________________________________________



Verse Part, clean guitar:

e--3---3-3--3----3-3-3-3--|
b--0---0-0--0----0-0-0-0--|
G--0---0-0--0----0-0-0-0--|
D--2---2-0--2----0-2-2-0--|
A--2---2-x--0-------------|
E--0---0-3----------------|

Lyrics:
"If I had my way
If I had to lose
Wouldn't take back one thing
Never had much to choose

Then it dawned on me
Coming down on you
Like a cold sky raining under a burning moon




(1:01) Guitar parts added to end of verse (w/ flanger), played 2x:

upstroke the notes (high string to low)
   V
e|-0---------------------------------|
b|-0-----------------------0-2-2b3-0-| 
G|-0-----------------------0-2-2b3-0-|
D|-2---------------------------------|
A|-----------------------------------|
E|-----------------------------------|

"Waiting all your life your wish is coming true
Bless your heart for beating me right out of you"

_____________________________________________________________________



  Just before Prechorus:
e|----------------|
b|----------------|
G|--7-9-9-7-------|
D|--7-9-9-7-------|
A|--5-7-7-5-------|
E|----------------|


PRECHORUS:

e|-----------------|-----------------|-----------------|-----------------|
b|-----------------|-----------------|-----------------|-----------------|
G|-9---9---9---9---|-9---9---9---9---|-9---9---9---9---|-8---8---8---8---|
D|-----------------|-----------------|-----------------|-----------------|
A|-7---7---7---7---|-7---7---7---7---|-7---7---7---7---|-6---6---6---6---|
E|-----------------|-----------------|-----------------|-----------------|
 |
 |  Guitar 2
e|-----------------|-----------------|-----------------|-----------------|
b|-----------------|-----------------|-----------------|-----------------|
G|-5-5-5-5-5-5-5-5-|-7-7-7-7-7-7-7-7-|-9-9-9-9-9-9-9-9-|-----------------|
D|-5-5-5-5-5-5-5-5-|-7-7-7-7-7-7-7-7-|-9-9-9-9-9-9-9-9-|-9-9-9-9-9-9-9-9-|
A|-3-3-3-3-3-3-3-3-|-5-5-5-5-5-5-5-5-|-7-7-7-7-7-7-7-7-|-9-9-9-9-9-9-9-9-|
E|-----------------|-----------------|-----------------|-7-7-7-7-7-7-7-7-|

           "Miss the misery   Need a reason for a change"



e|-----------------|-----------------|------------------|
b|-----------------|-----------------|------------------|
G|-9---9---9---9---|-9---9---9---9---|-9---9-9-9-9-9/11-|
D|-----------------|-----------------|------------------|
A|-7---7---7---7---|-7---7---7---7---|-7---7-7-7-7-7/9--|
E|-----------------|-----------------|------------------|
 |
 |  Guitar 2
e|-----------------|-----------------|------------------|
b|-----------------|-----------------|------------------|
G|-5-5-5-5-5-5-5-5-|-7-7-7-7-7-7-7-7-|-9-9-9-9-9-9-9-9--|
D|-5-5-5-5-5-5-5-5-|-7-7-7-7-7-7-7-7-|-9-9-9-9-9-9-9-9--|
A|-3-3-3-3-3-3-3-3-|-5-5-5-5-5-5-5-5-|-7-7-7-7-7-7-7-7--|
E|-----------------|-----------------|------------------|

        "Need a reason to explain      So turn it on again"


Prechorus Ending:

  Guitar 1
|--------------------------|
|--------------------------|
|-11-11-11/12-12-12-12\----|
|-x--x--x------x--x--x-----|
|-9--9--9/10--10-10-10\----|
|--------------------------|
|
| Guitar 2
|--------------------------|
|--------------------------|
|--------------------------|
|--------------------------|
|-9--9--9--9--9--9--9--9---|
|-7--7--7--7--7--7--7--7---|




_____________________________________________________________________



CHORUS:

e-3--3-3--3--3-3-----------------|-0--0-0--0--0-0------------------|
b-3--3-3--3--3-3--3--3-3--3--3-3-|-0--0-0--0--0-0------------------|
G-0--0-0--0--0-0--2--2-2--2--2-2-|-x--x-x--x--x-x--4--4-4--4--4-4--|
D-2--2-2--2--2-2--0--0-0--0--0-0-|-2--2-2--2--2-2--4--4-4--4--4-4--|
A-3--3-3--3--3-3--0--0-0--0--0-0-|-2--2-2--2--2-2--2--2-2--2--2-2--|
E--------------------------------|-0--0-0--0--0-0------------------|

          "Don't change your mind                You're wasting light"



e--3--3-3--3--3-3------------------|
b--3--3-3--3--3-3--3--3-3--3-3-3---|
G--0--0-0--0--0-0--2--2-2--2-2-2---|
D--x--x-x--x--x-x--0--0-0--0-0-0---|
A--3--3-3--3--3-3------------------|
E----------------------------------|
                    "Given endless ??"

_____________________________________________________________________




Verse 2 - Same as Before, Lyrics are:

"What a nice long leash, what a nice tight noose
Never worked for me but sure would look good on you
Been waiting all your life your wish is coming true
Bless your heart for beating me right out of you"





Play Prechorus & Chorus Again





(2:56) Modified Pre-Chorus
  Guitar 1 - Keep muting notes to make them short
e|----------------|-----------------|-----------------|----------------|
b|----------------|-----------------|-----------------|----------------|
G|----------------|-----------------|-----------------|----------------|
D|-5-5-5--5---5---|-7---7---7---7---|-9-9-9---9---9---|-4---4---4---4--|
A|-3-3-3--3---3---|-5---5---5---5---|-7-7-7---7---7---|-2---2---2---2--|
E|----------------|-----------------|-----------------|----------------|
 |
 | Guitar 2 - play steady eighths (shown as pick notes x8)
e|----------------|-----------------|-----------------|-----------------|
b|----------------|-----------------|-----------------|-----------------|
G|-9--x8----------|-9--x8-----------|-9---x8----------|-8--x8-----------|
D|----------------|-----------------|-----------------|-----------------|
A|-7--x8----------|-7--x8-----------|-7---x8----------|-6--x8-----------|
E|----------------|-----------------|-----------------|-----------------|

 "Miss the misery give me a reason for a change"



 | Repeat Guitar 1 above
 |
 | Guitar 2
e|----------------|-----------------|-----------------|-----------------|
b|----------------|-----------------|-----------------|-----------------|
G|-9--x8----------|-9--x8-----------|-9---x8----------|-11--x8----------|
D|----------------|-----------------|-----------------|-----------------|
A|-7--x8----------|-7--x8-----------|-7---x8----------|-9---x8----------|
E|----------------|-----------------|-----------------|-----------------|


 "Miss the misery give me a reason to refrain"




Modified Pre-Chorus, Part 2 Riff:

e-----|-12----12----12-----12----|-14----14----14----14------|
b-/12-|----12----12----12-----12-|----13----13----13----13---|
G-----|--------------------------|---------------------------|
D-----|--------------------------|---------------------------|
A-----|--------------------------|---------------------------|
E-----|--------------------------|---------------------------|
                 "Miss      your   misery              today"


e|-12----12----12-----12----|-11----11----11----11------|
b|----12----12----12-----12-|----10----10----10----10---|
G|--------------------------|---------------------------|
D|--------------------------|---------------------------|
A|--------------------------|---------------------------|
E|--------------------------|---------------------------|
             "Miss    your    misery              today"


e|-12----12----12-----12----|-14----14----14-----------|
b|----12----12----12-----12-|----13----13----13--------|
G|--------------------------|--------------------------|
D|--------------------------|--------------------------|
A|--------------------------|--------------------------|
E|--------------------------|-------------------12\----|
         "C'mon       and     turn     it on   again"






________________________________________________________________

Interlude - Part 1

Guitar 1
e|-----------------------------|----------------------------|
b|-----------------------------|----------------------------|
G|-----------------0-2--2b3r-0-|---------------0-2--2b3r-0--|
D|-2---2-----------------------|-2---2----------------------|
A|-2---2------0----------------|-2---2------0---------------|
E|-0---0-3~--------------------|-0---0-3~-------------------|
 |
 |Guitar 2
e|-----------------------------|-------------------------|
b|-5-----10----12--------------|-5---/14----12~~---------|
G|-7b9---12b14-14b16-----------|-7b9-----14--------------|
D|-----------------------------|-------------------------|
A|-----------------------------|-------------------------|
E|-----------------------------|-------------------------|



e|-----------------------------|----------------------------|
b|-----------------------------|----------------------------|
G|-----------------------------|----------------------------|
D|-2-----8----10----10/12-12---|-2----10---12----12/14-14---|
A|-2-----8----10-----8/10-10---|-2----10---12----10/12-12---|
E|-0-----6-----8-----8/10-10---|-0-----8---10----10/12-12---|
 |
 |
e|-----------------------------|----------------------------|
b|-0----------------/8--8--8~--|-3---------------10---10-10-|
G|-2b4~--5~----5~--------------|-5b7---5---7~~---12b14-b--b-|
D|-----------------------------|----------------------------|
A|-----------------------------|----------------------------|
E|-----------------------------|----------------------------|



e|--------------------------------|----------------------------|
b|--------------------------------|----------------------------|
G|-------------------0--2--2b3r-0-|---------------0-2--2b3r-0--|
D|-2---2--------------------------|-2---2----------------------|
A|-2---2------0-------------------|-2---2------0---------------|
E|-0---0-3~-----------------------|-0---0-3~-------------------|
 |
 |
e|--------------------------------|-------------------------|
b|-5-----10----12-----------------|-5---/14----12~~---------|
G|-7b9---12b14-14b16-12-14-14b-12-|-7b9-----14--------------|
D|--------------------------------|-------------------------|
A|--------------------------------|-------------------------|
E|--------------------------------|-------------------------|





Play Modified Pre-Chorus Part 2 Riff Again for 8 bars


Play Main Riff a few times


Play Main Riff with the G string bend part only 4x





-------------------------------------------------------------------------------
                             I Should Have Known - Foo Fighters
-------------------------------------------------------------------------------
Tabbed by: Jimbompaleen
Email: poo_face_63@hotmail.com

Tuning: Standard

Probably my favourite song off their new album Wasting Light

Guitar 1 Dave Grohl
Guitar 2 Chris Shiflett
Guitar 3 Pat Smear

Intro x4
Guitar 1
e|------------------|
B|------------------|
G|--------0---------|
D|-----------0------|
A|----1-----------1-|
E|--3---3------3----|


Verse x2
Guitar 1 (Guitar 2 plays same thing second time through)
e|-----------------------------------------------------------------------------|
B|-----------------------------------------------------------------------------|
G|--------0--------------0--------------2--------------2--------------2--------|
D|-----------0--------------0-------1------1---1---1------1---1---1------1---1-|
A|----1----------1---1----------1-3---3------3---3---3------3---0---0------2---|
E|--3---3------3---3---3------3------------------------------------------------|

e|------------------------------------------------|
B|------------------------------------------------|
G|-------3--------------3--------------2p0--------|
D|---0------0---0---1------1---1------------------|
A|-1---1------1---3---3------3-----3--------3---3-|
E|-------------------------------1---1--------1---|


Pre-Chorus x3
Guitar 1 & 2
e|----------------------------------------8--------------8---------|
B|----------------------------------------8--------------8---------|
G|--------0-------0-------0-----0---------0--------------0---------|
D|------0-------0-------0-----8------------------------------------|
A|----1-------3-------5-----8---------7------7---7---7------7---7--|
E|--3-------5-------6---------------8---8------8---8---8------8----|


Chorus 1
Guitar 1
e|-----------------------3-----------------------------3-----------------------|
B|-------4---------------3--------------4--------------3--------------6--------|
G|-------0---------------0--------------0--------------0--------------0--------|
D|---5------5---5----0------0---0---5------5---5---0------0---0---8------8---8-|
A|-6---6------6-------------------6---6------6------------------8---8------8---|
E|-----------------3---3------3------------------3---3------3------------------|

e|-8-8-8-8-8-8-8-8-8-8-8-8-8--|
B|-8-8-8-8-8-8-8-8-8-8-8-8-8--|
G|-0-0-0-0-0-0-0-0-0-0-0-0-0--|
D|-0-0-0-0-0-0-0-0-0-0-0-0-0--|
A|-7-7-7-7-7-7-7-7-7-7-7-7-7--|
E|-8-8-8-8-8-8-8-8-8-8-8-8-8--|


Guitar 2
e|----------------------------------------------------------------------------------|
B|-------4----------------8---------------4----------------8---------------6--------|
G|-------0----------------0---------------0----------------0---------------0--------|
D|---5------5---5----9-------9----9---5------5---5----9-------9----9---7------7---7-|
A|-6---6------6---10---10------10---6---6------6---10---10------10---8---8------8---|
E|----------------------------------------------------------------------------------|

e|----------------------------|
B|-1-1-1-1-1-1-1-1-1-1-1-1-1--|
G|-0-0-0-0-0-0-0-0-0-0-0-0-0--|
D|-2-2-2-2-2-2-2-2-2-2-2-2-2--|
A|-3-3-3-3-3-3-3-3-3-3-3-3-3--|
E|----------------------------|


Verse x2
Guitar 3 x2
e|-3~--------8~----------------------8~----1~----|
B|-3~--------8~---------------11~----8~----1~----|
G|-3~--------8~--------10~----12~----8~----2~----|
D|-5~--------10~-------10~----12~----10~---3~----|
A|-5~--------10~-------8~-----10~----10~---3~----|
E|-3~--------8~----------------------8~----1~----|


Pre-Chorus x3
Guitar 1 plays first pre-chorus riff

Guitar 2 (Not too sure, I think it's something like this)
e|---3-------------------------3--3--3-3--3-3-3-3--3-3--3-3-3-|
B|-----------6-------6---------1--1--1-1--1-1-1-1--1-1--1-1-1-|
G|-----0-------0-------0-----2----0--0-0--0-0-0-0--0-0--0-0-0-|
D|-5-----5-7-----7-8-----8-3------2--2-2--2-2-2-2--2-2--2-2-2-|
A|--------------------------------3--3-3--3-3-3-3--3-3--3-3-3-|
E|------------------------------------------------------------|


Guitar 3
e|-------------------------------------|
B|-------------------------------------|
G|-------------------------------------|
D|-------------------------------------|
A|-------------------------8~----\-3~~-|
E|-3~------5~-----6~-------------------|


Chorus 2 x2 
Guitar 1
e|--------------3--3-3--3-3---------------3--3-3--3-3---------------8--8-8--8-8-8-|
B|-4--4-4--4-4--3--3-3--3-3--4--4-4--4-4--3--3-3--3-3--6--6-6--6-6--8--8-8--8-8-8-|
G|-0--0-0--0-0--0--0-0--0-0--0--0-0--0-0--0--0-0--0-0--x--x-x--x-x--0--0-0--0-0-0-|
D|-5--5-5--5-5--0--0-0--0-0--5--5-5--5-5--0--0-0--0-0--8--8-8--8-8--0--0-0--0-0-0-|
A|-6--6-6--6-6--x--x-x--x-x--6--6-6--6-6--x--x-x--x-x--8--8-8--8-8--7--7-7--7-7-7-|
E|--------------3--3-3--3-3---------------3--3-3--3-3---------------8--8-8--8-8-8-|


After second time end with
e|-8-8-8-8-8-8-8-8-8-8-8-8-8-8-8-8-|
B|-8-8-8-8-8-8-8-8-8-8-8-8-8-8-8-8-|
G|-0-0-0-0-0-0-0-0-0-0-0-0-0-0-0-0-|
D|-0-0-0-0-0-0-0-0-0-0-0-0-0-0-0-0-|
A|-7-7-7-7-7-7-7-7-7-7-7-7-7-7-7-7-|
E|-8-8-8-8-8-8-8-8-8-8-8-8-8-8-8-8-|


Guitar 2
e|--------------------------------------------------------------|
B|-4--4-4--4-4--8---8--8---8--8---4--4-4--4-4--8---8--8---8--8--|
G|-0--0-0--0-0--0---0--0---0--0---0--0-0--0-0--0---0--0---0--0--|
D|-5--5-5--5-5--9---9--9---9--9---5--5-5--5-5--9---9--9---9--9--|
A|-6--6-6--6-6--10--10-10--10-10--6--6-6--6-6--10--10-10--10-10-|
E|--------------------------------------------------------------|

e|--------------------------|
B|-6--6-6--6-6--1--1-1--1-1-|
G|-0--0-0--0-0--0--0-0--0-0-|
D|-7--7-7--7-7--2--2-2--2-2-|
A|-8--8-8--8-8--3--3-3--3-3-|
E|--------------------------|

After second time end with
e|---------------------------------|
B|-1-1-1-1-1-1-1-1-1-1-1-1-1-1-1-1-|
G|-0-0-0-0-0-0-0-0-0-0-0-0-0-0-0-0-|
D|-2-2-2-2-2-2-2-2-2-2-2-2-2-2-2-2-|
A|-3-3-3-3-3-3-3-3-3-3-3-3-3-3-3-3-|
E|---------------------------------|


Guitar 3
e|-----------------------------------------------------------------------------------|
B|-----------------------------------------------------------------------------------|
G|-8--8-8--8-8---------------8--8-8--8-8---------------10--10-10--10-10--5--5-5--5-5-|
D|-8--8-8--8-8--5--5-5--5-5--8--8-8--8-8--5--5-5--5-5--10--10-10--10-10--5--5-5--5-5-|
A|-6--6-6--6-6--5--5-5--5-5--6--6-6--6-6--5--5-5--5-5--8---8--8---8--8---3--3-3--3-3-|
E|--------------3--3-3--3-3---------------3--3-3--3-3--------------------------------|

After second time end with
e|---------------------------------|
B|---------------------------------|
G|-5-5-5-5-5-5-5-5-5-5-5-5-5-5-5-5-|
D|-5-5-5-5-5-5-5-5-5-5-5-5-5-5-5-5-|
A|-3-3-3-3-3-3-3-3-3-3-3-3-3-3-3-3-|
E|---------------------------------|


Breakdown
Guitar 1 x2
e|--------------------------------------------------------------------------|
B|--------------------------------------------------------------------------|
G|-------------------------1010101010101010---------------------------------|
D|-555555557777777788888888x-x-x-x-x-x-x-x-10101010101010101010101010101010-|
A|-xxxxxxxxxxxxxxxxxxxxxxxx8-8-8-8-8-8-8-8-x-x-x-x-x-x-x-x-x-x-x-x-x-x-x-x--|
E|-333333335555555566666666----------------8-8-8-8-8-8-8-8-8-8-8-8-8-8-8-8--|

e|----------------------------------|
B|----------------------------------|
G|----------------------------------|
D|-10101010101010101010101010101010-|
A|-x-x-x-x-x-x-x-x-x-x-x-x-x-x-x-x--|
E|-8-8-8-8-8-8-8-8-8-8-8-8-8-8-8-8--|

e|--------------------------------------------------------------------------|
B|--------------------------------------------------------------------------|
G|-------------------------101010101010101012121212121212121212121212121212-|
D|-555555557777777788888888x-x-x-x-x-x-x-x-x-x-x-x-x-x-x-x-x-x-x-x-x-x-x-x--|
A|-xxxxxxxxxxxxxxxxxxxxxxxx8-8-8-8-8-8-8-8-10101010101010101010101010101010-|
E|-333333335555555566666666-------------------------------------------------|

e|----------------------------------|
B|----------------------------------|
G|-12121212121212121212121212121212-|
D|-x-x-x-x-x-x-x-x-x-x-x-x-x-x-x-x--|
A|-10101010101010101010101010101010-|
E|----------------------------------|


Guitar 2
e|--------------------------------------------------------------------------|
B|--------------------------------------------------------------------------|
G|-333333335555555577777777101010101010101099999999999999999999999999999999-|
D|-xxxxxxxxxxxxxxxxxxxxxxxxx-x-x-x-x-x-x-x-xxxxxxxxxxxxxxxxxxxxxxxxxxxxxxxx-|
A|-1111111133333333555555558-8-8-8-8-8-8-8-77777777777777777777777777777777-|
E|--------------------------------------------------------------------------|

e|--------------------------------------------------------------------------|
B|--------------------------------------------------------------------------|
G|-333333335555555577777777101010101010101012121212121212121212121212121212-|
D|-xxxxxxxxxxxxxxxxxxxxxxxxx-x-x-x-x-x-x-x-x-x-x-x-x-x-x-x-x-x-x-x-x-x-x-x--|
A|-1111111133333333555555558-8-8-8-8-8-8-8-10101010101010101010101010101010-|
E|--------------------------------------------------------------------------|

e|----------------------------------|
B|----------------------------------|
G|-12121212121212121212121212121212-|
D|-x-x-x-x-x-x-x-x-x-x-x-x-x-x-x-x--|
A|-10101010101010101010101010101010-|
E|----------------------------------|

e|----------------------------------------------------------------------------------|
B|-11111111111111111313131313131313151515151515151518181818181818181717171717171717-|
G|-x-x-x-x-x-x-x-x-x-x-x-x-x-x-x-x-x-x-x-x-x-x-x-x-x-x-x-x-x-x-x-x-x-x-x-x-x-x-x-x--|
D|-8-8-8-8-8-8-8-8-1010101010101010121212121212121215151515151515151414141414141414-|
A|----------------------------------------------------------------------------------|
E|----------------------------------------------------------------------------------|


e|--------------------------------------------------|
B|-171717171717171717171717171717171717171717171717-|
G|-x-x-x-x-x-x-x-x-x-x-x-x-x-x-x-x-x-x-x-x-x-x-x-x--|
D|-141414141414141414141414141414141414141414141414-|
A|--------------------------------------------------|
E|--------------------------------------------------|

e|----------------------------------------------------------------------------------|
B|----------------------------------------------------------------------------------|
G|-15151515151515151414141414141414121212121212121210101010101010101212121212121212-|
D|-x-x-x-x-x-x-x-x-x-x-x-x-x-x-x-x-x-x-x-x-x-x-x-x-x-x-x-x-x-x-x-x-x-x-x-x-x-x-x-x--|
A|-1313131313131313121212121212121210101010101010108-8-8-8-8-8-8-8-1010101010101010-|
E|----------------------------------------------------------------------------------|

e|--------------------------------------------------|
B|--------------------------------------------------|
G|-121212121212121212121212121212121212121212121212-|
D|-x-x-x-x-x-x-x-x-x-x-x-x-x-x-x-x-x-x-x-x-x-x-x-x--|
A|-101010101010101010101010101010101010101010101010-|
E|--------------------------------------------------|


Chorus 2 x3

After the second time through the chorus play this before going in for the last time
Guitar 2
e|----------|
B|-1--1--3--|
G|-0--0--0--|
D|-2--2--4--|
A|-3--3--5--|
E|----------|

Guitar 3
e|----------|
B|----------|
G|-5--5--7--|
D|-5--5--7--|
A|-3--3--5--|
E|----------|


End with
e|-8-8-8-8-8-8-8-8-8-8-8-8-8--|
B|-8-8-8-8-8-8-8-8-8-8-8-8-8--|
G|-0-0-0-0-0-0-0-0-0-0-0-0-0--|
D|-0-0-0-0-0-0-0-0-0-0-0-0-0--|
A|-7-7-7-7-7-7-7-7-7-7-7-7-7--|
E|-8-8-8-8-8-8-8-8-8-8-8-8-8--|





-------------------------------------------------------------------------------
                             Walk - Foo Fighters
-------------------------------------------------------------------------------
Tabbed by: Jimbompaleen
Email: poo_face_63@hotmail.com

Tuning: Standard

Guitar 1: Dave Grohl
Guitar 2: Chris Shiflett

Last song from their new album Wasting Light.
All tabbed by ear. Enjoy

Intro
Guitar 1 x2
e|---------------------------------|
B|---------------------------------|
G|-9---9---9-----9-------9---------|
D|-7-7-7-7-7-7-7-7-7-7-7-7-7-7-7-7-|
A|-0-0-0-0-0-0-0-0-0-0-0-0-0-0-0-0-|
E|---------------------------------|
Pm . . . . . . . . . . . . . . . .

Guitar 2 x2
e|--------7-----------|
B|---10------10---10~-|
G|-9----9-------9-----|
D|--------------------|
A|--------------------|
E|--------------------|


Verse 1
Guitar 1 x4
e|---------------------------------|
B|---------------------------------|
G|-9---9---9-----9-------9---------|
D|-7-7-7-7-7-7-7-7-7-7-7-7-7-7-7-7-|
A|-0-0-0-0-0-0-0-0-0-0-0-0-0-0-0-0-|
E|---------------------------------|
Pm . . . . . . . . . . . . . . . .

Guitar 1 x2
e|----------------------------------------------------------------|
B|----------------------------------------------------------------|
G|-9-9-9-9-9-9-9-9-9-9-9-9-9-9-9-9-9-9-9-9-9-9-9-9-9-9-9-9-9-9-9--|
D|-7-7-7-7-7-7-7-7-7-7-7-7-7-7-7-7-9-9-9-9-9-9-9-9-9-9-9-9-9-9-9--|
A|-0-0-0-0-0-0-0-0-0-0-0-0-0-0-0-0-7-7-7-7-7-7-7-7-7-7-7-7-7-7-7--|
E|----------------------------------------------------------------|
Pm . . . . . . . . . . . . . . . . . . . . . . . . . . . . . . .

e
B|----------------------------------------------------------------|
G|---------------------------------7-7-7-7-7-7-7-7-7-7-7-7-7-7-7--|
D|-9-9-9-9-9-9-9-9-9-9-9-9-9-9-9-9-7-7-7-7-7-7-7-7-7-7-7-7-7-7-7--|
A|-9-9-9-9-9-9-9-9-9-9-9-9-9-9-9-9-5-5-5-5-5-5-5-5-5-5-5-5-5-5-5--|
E|-7-7-7-7-7-7-7-7-7-7-7-7-7-7-7-7--------------------------------|
Pm . . . . . . . . . . . . . . . . . . . . . . . . . . . . . . .

Guitar 1
e|----------------------------------------------------------------|
B|----------------------------------------------------------------|
G|-9-9-9-9-9-9-9-9-9-9-9-9-9-9-9-9-9-9-9-9-9-9-9-9-9-9-9-9-9-9-9--|
D|-7-7-7-7-7-7-7-7-7-7-7-7-7-7-7-7-9-9-9-9-9-9-9-9-9-9-9-9-9-9-9--|
A|-0-0-0-0-0-0-0-0-0-0-0-0-0-0-0-0-7-7-7-7-7-7-7-7-7-7-7-7-7-7-7--|
E|----------------------------------------------------------------|
Pm . . . . . . . . . . . . . . . . . . . . . . . . . . . . . . .

e
B|------------------------------------------------------------------|
G|---------------------------------7-7-7-7-9-9-9-9-1010101012121212-|
D|-9-9-9-9-9-9-9-9-9-9-9-9-9-9-9-9-x-x-x-x-x-x-x-x-x-x-x-x-x-x-x-x--|
A|-9-9-9-9-9-9-9-9-9-9-9-9-9-9-9-9-5-5-5-5-7-7-7-7-8-8-8-8-10101010-|
E|-7-7-7-7-7-7-7-7-7-7-7-7-7-7-7-7----------------------------------|
Pm . . . . . . . . . . . . . . . . . . . . . . . . . . . . . . . .


Guitar 2 x2
e|--------7-------------------7-------------------7-------7~------------7------------|
B|---10------10---10~-----9------9---10~-----10------10-----------10-------10----10~-|
G|-9----9-------9-------9---9------9-------7----7-------7------10----10-------10-----|
D|-----------------------------------------------------------------------------------|
A|-----------------------------------------------------------------------------------|
E|-----------------------------------------------------------------------------------|

e|--------7-------------------7-------------------7-------7~------------7--------8~--|
B|---10------10---10~-----9------9---10~-----10------10-----------10-------10--------|
G|-9----9-------9-------9---9------9-------7----7-------7------10----10-------10-----|
D|-----------------------------------------------------------------------------------|
A|-----------------------------------------------------------------------------------|
E|-----------------------------------------------------------------------------------|


Guitar 1 x2
e|---------------------------------|
B|---------------------------------|
G|-2-2-2-2-2-2-2-2-2-2-2-2-2-2-2-2-|
D|-2-2-2-2-2-2-2-2-2-2-2-2-2-2-2-2-|
A|-0-0-0-0-0-0-0-0-0-0-0-0-0-0-0-0-|
E|---------------------------------|


Guitar 2 x2
e|---------------------------------|
B|---------------------------------|
G|-9-9-9-9-9-9-9-9-9-9-9-9-9-9-9-9-|
D|-7-7-7-7-7-7-7-7-7-7-7-7-7-7-7-7-|
A|-0-0-0-0-0-0-0-0-0-0-0-0-0-0-0-0-|
E|---------------------------------|


Verse 2
Guitar 1
e|----------------------------------------------------------------------------------|
B|---------------------------------------------------------3-3--3-3-3--3-3-3--3-3-3-|
G|-2-2--2-2-2--2-2-2--2-2-2--2-1-1--1-1-1--1-1-1--1-1-1--1-4-4--4-4-4--4-4-4--4-4-4-|
D|-2-2--2-2-2--2-2-2--2-2-2--2-2-2--2-2-2--2-2-2--2-2-2--2-4-4--4-4-4--4-4-4--4-4-4-|
A|-0-0--0-0-0--0-0-0--0-0-0--0-2-2--2-2-2--2-2-2--2-2-2--2-2-2--2-2-2--2-2-2--2-2-2-|
E|-----------------------------0-0--0-0-0--0-0-0--0-0-0--0--------------------------|

e|--------------------------------|
B|-3-6-6--6-6-6--6-6-6--6-6-6-6-6-|
G|-4-7-7--7-7-7--7-7-7--7-7-7-7-7-|
D|-4-7-7--7-7-7--7-7-7--7-7-7-7-7-|
A|-2-5-5--5-5-5--5-5-5--5-5-5-5-5-|
E|--------------------------------|

e|----------------------------------------------------------------------------------|
B|---------------------------------------------------------3-3--3-3-3--3-3-3--3-3-3-|
G|-2-2--2-2-2--2-2-2--2-2-2--2-1-1--1-1-1--1-1-1--1-1-1--1-4-4--4-4-4--4-4-4--4-4-4-|
D|-2-2--2-2-2--2-2-2--2-2-2--2-2-2--2-2-2--2-2-2--2-2-2--2-4-4--4-4-4--4-4-4--4-4-4-|
A|-0-0--0-0-0--0-0-0--0-0-0--0-2-2--2-2-2--2-2-2--2-2-2--2-2-2--2-2-2--2-2-2--2-2-2-|
E|-----------------------------0-0--0-0-0--0-0-0--0-0-0--0--------------------------|

e|------------------------------------|
B|------------------------------------|
G|-7--7-779--9-9910-10101012--12-1212-|
D|-x--x-xxx--x-xxx--x-x-x-x---x--x-x--|
A|-5--5-557--7-778--8-8-8-10--10-1010-|
E|------------------------------------|


Guitar 2 (Don't know if this is right but it sounds good to me)
e|---------------------------------------------------------|
B|-1010-101010-101010-101010-109-9--9-9-9--9-1010-109-9--9-|
G|-9-9--9-9-9--9-9-9--9-9-9--9-9-9--9-9-9--9-9-9--9-9-9--9-|
D|-7-7--7-7-7--7-7-7--7-7-7--7-x-x--x-x-x--x-x-x--x-x-x--x-|
A|-0-0--0-0-0--0-0-0--0-0-0--0-7-7--7-7-7--7-7-7--7-7-7--7-|
E|---------------------------------------------------------|

e|-----------------------------------------------------------|
B|-1010-101010-101010-101010-101010-101010-101010-1010101010-|
G|-1111-111111-111111-111111-111010-101010-101010-1010101010-|
D|-x-x--x-x-x--x-x-x--x-x-x--x-x-x--x-x-x--x-x-x--x-x-x-x-x--|
A|-9-9--9-9-9--9-9-9--9-9-9--9-8-8--8-8-8--8-8-8--8-8-8-8-8--|
E|-----------------------------------------------------------|

e|---------------------------------------------------------|
B|-1010-101010-101010-101010-109-9--9-9-9--9-1010-109-9--9-|
G|-9-9--9-9-9--9-9-9--9-9-9--9-9-9--9-9-9--9-9-9--9-9-9--9-|
D|-7-7--7-7-7--7-7-7--7-7-7--7-x-x--x-x-x--x-x-x--x-x-x--x-|
A|-0-0--0-0-0--0-0-0--0-0-0--0-7-7--7-7-7--7-7-7--7-7-7--7-|
E|---------------------------------------------------------|

e|------------------------------------------------------------------|
B|-1010-101010-101010-101010----------------------------------------|
G|-1111-111111-111111-111111------------9--9-9910-101010------------|
D|-x-x--x-x-x--x-x-x--x-x-x--12--12-1212x--x-xxx--x-x-x-12--12-1212-|
A|-9-9--9-9-9--9-9-9--9-9-9--x---x--x-x-7--7-778--8-8-8-x---x--x-x--|
E|---------------------------10--10-1010----------------10--10-1010-|


Chorus
Guitar 1 x2
e|-----------------------------------------------------------------|
B|-----------------------------------------------------------------|
G|-2-2-2-2-2-2-2-2-2-2-2-2-2-2-2-2-1-1-1-1-1-1-1-1-1-1-1-1-1-1-1-1-|
D|-2-2-2-2-2-2-2-2-2-2-2-2-2-2-2-2-2-2-2-2-2-2-2-2-2-2-2-2-2-2-2-2-|
A|-0-0-0-0-0-0-0-0-0-0-0-0-0-0-0-0-2-2-2-2-2-2-2-2-2-2-2-2-2-2-2-2-|
E|---------------------------------0-0-0-0-0-0-0-0-0-0-0-0-0-0-0-0-|

e|-------------------------------------------------------------------|
B|-3-3-3-3-3-3-3-3-3-3-3-3-3-3-3-3-----------------------------------|
G|-4-4-4-4-4-4-4-4-4-4-4-4-4-4-4-4-7--7-779--9-9910-10101012--12-1212-|
D|-4-4-4-4-4-4-4-4-4-4-4-4-4-4-4-4-x--x-xxx--x-xxx--x-x-x-x---x--x-x--|
A|-2-2-2-2-2-2-2-2-2-2-2-2-2-2-2-2-5--5-557--7-778--8-8-8-10--10-1010-|
E|--------------------------------------------------------------------|


Guitar 2 x2
e|-----------------------------------------------------------------|
B|-101010101010101010101010101010109-9-9-9-9-9-9-9-101010109-9-9-9-|
G|-9-9-9-9-9-9-9-9-9-9-9-9-9-9-9-9-9-9-9-9-9-9-9-9-9-9-9-9-9-9-9-9-|
D|-7-7-7-7-7-7-7-7-7-7-7-7-7-7-7-7-x-x-x-x-x-x-x-x-x-x-x-x-x-x-x-x-|
A|-0-0-0-0-0-0-0-0-0-0-0-0-0-0-0-0-7-7-7-7-7-7-7-7-7-7-7-7-7-7-7-7-|
E|-----------------------------------------------------------------|

e|-------------------------------------------------------------------------|
B|-10101010101010101010101010101010----------------------------------------|
G|-11111111111111111111111111111111------------9--9-9910-101010------------|
D|-x-x-x-x-x-x-x-x-x-x-x-x-x-x-x-x--12--12-1212x--x-xxx--x-x-x-12--12-1212-|
A|-9-9-9-9-9-9-9-9-9-9-9-9-9-9-9-9--x---x--x-x-7--7-778--8-8-8-x---x--x-x--|
E|----------------------------------10--10-1010----------------10--10-1010-|


Bridge
Guitar 1 x3
e|-----------------------------------------------------------------|
B|-----------------------------------------------------------------|
G|-2-2-2-2-2-2-2-2-2-2-2-2-2-2-2-2-2-2-2-2-2-2-2-2-2-2-2-2-2-2-2-2-|
D|-2-2-2-2-2-2-2-2-2-2-2-2-2-2-2-2-2-2-2-2-2-2-2-2-2-2-2-2-2-2-2-2-|
A|-0-0-0-0-0-0-0-0-0-0-0-0-0-0-0-0-0-0-0-0-0-0-0-0-0-0-0-0-0-0-0-0-|
E|-----------------------------------------------------------------|

e|-----------------------------------------------------------------|
B|-----------------------------------------------------------------|
G|-1-1-1-1-1-1-1-1-1-1-1-1-1-1-1-1-1-1-1-1-1-1-1-1-1-1-1-1-1-1-1-1-|
D|-2-2-2-2-2-2-2-2-2-2-2-2-2-2-2-2-2-2-2-2-2-2-2-2-2-2-2-2-2-2-2-2-|
A|-2-2-2-2-2-2-2-2-2-2-2-2-2-2-2-2-2-2-2-2-2-2-2-2-2-2-2-2-2-2-2-2-|
E|-0-0-0-0-0-0-0-0-0-0-0-0-0-0-0-0-0-0-0-0-0-0-0-0-0-0-0-0-0-0-0-0-|

e|-------------------------------------------------1-1-1-1-1-1-1-1-|
B|-2-2-2-2-2-2-2-2-2-2-2-2-2-2-2-2-3-3-3-3-3-3-3-3-3-3-3-3-3-3-3-3-|
G|-2-2-2-2-2-2-2-2-2-2-2-2-2-2-2-2-2-2-2-2-2-2-2-2-2-2-2-2-2-2-2-2-|
D|-x-x-x-x-x-x-x-x-x-x-x-x-x-x-x-x-0-0-0-0-0-0-0-0-0-0-0-0-0-0-0-0-|
A|-x-x-x-x-x-x-x-x-x-x-x-x-x-x-x-x---------------------------------|
E|-2-2-2-2-2-2-2-2-2-2-2-2-2-2-2-2---------------------------------|


Guitar 2 x5 
e|--------------------------|   
B|--------------------------|   
G|---6-6-7-7--9-9--11-13-14-|   
D|---x-x-x-x--x-x--x--x--x--|   
A|---4-4-5-5--7-7--9--11-12-|   
E|--------------------------|   
(Plays both these parts twice)  
e|-------------------------------|      
B|-------------------------------|      
G|---6-6-7-7--10101010101012--14-|      
D|---x-x-x-x--x-x-x-x-x-x-x---x--|      
A|---4-4-5-5--8-8-8-8-8-8-10--12-|      
E|-------------------------------|      


Guitar 2        
e|-9-9-9-9-9-9-9-9-9-9-9-9-9-9-9-9-9-9-9-9-9-9-9-9-9-9-9-9-10109-9-9--|
B|-101010101010101010101010101010101010101010101010101010101010101010-|
G|-9-9-9-9-9-9-9-9-9-9-9-9-9-9-9-9-9-9-9-9-9-9-9-9-9-9-9-9-9-9-9-9-9--|
D|--------------------------------------------------------------------|
A|--------------------------------------------------------------------|
E|--------------------------------------------------------------------|

e|-7-7-7-7-7-7-7-7-7-7-7-7-7-7-7-7-7-7-7-7-7-7-7-7-7-7-7-7-7-7-7-7-|
B|-9-9-9-9-9-9-9-9-9-9-9-9-9-9-9-9-9-9-9-9-9-9-9-9-9-9-9-9-9-9-9-9-|
G|-9-9-9-9-9-9-9-9-9-9-9-9-9-9-9-9-9-9-9-9-9-9-9-9-9-9-9-9-9-9-9-9-|
D|-----------------------------------------------------------------|
A|-----------------------------------------------------------------|
E|-----------------------------------------------------------------|

e|-9-9-9-9-9-9-9-9-9-9-9-9-9-9-9-9-10101010101010101010101010101010-|
B|-7-7-7-7-7-7-7-7-7-7-7-7-7-7-7-7-7-7-7-7-7-7-7-7-6-6-6-6-6-6-6-6--|
G|-6-6-6-6-6-6-6-6-6-6-6-6-6-6-6-6-7-7-7-7-7-7-7-7-7-7-7-7-7-7-7-7--|
D|------------------------------------------------------------------|
A|------------------------------------------------------------------|
E|------------------------------------------------------------------|


Chorus 
Guitar 1
e|---------------------------|
B|---------------------------|
G|-2~-------------2*--2*--2--|
D|-2~-------------2*--2*--2--|
A|-0~-------------0*--0*--0--|
E|---------------------------|


Guitar 2
e|---------------------------|
B|-10~------------10*-10*-10-|
G|-9~-------------9*--9*--9--|
D|-7~-------------7*--7*--7--|
A|-0~-------------0*--0*--0--|
E|---------------------------|
*Quickly cut off

Then play rest of Chorus


Guitar 2 plays the first part of the bridge for a bit


Outro
Guitar 1 x2
e|----------------------------------|
B|----------------------------------|
G|-7--7-779--9-9910--10-10109--9-99-|
D|-x--x-xxx--x-xxx---x--x-x-x--x-xx-|
A|-5--5-557--7-778---8--8-8-7--7-77-|
E|----------------------------------|


Guitar 2 x2
e|----------------------------------------------|
B|----------------------------------------------|
G|-14--14-141412--12-121210--10-101012--12-1212-|
D|-x---x--x-x-x---x--x-x-x---x--x-x-x---x--x-x--|
A|-12--12-121210--10-10108---8--8-8-10--10-1010-|
E|----------------------------------------------|


Guitar 1
e|--------------------------------------------------------------------|
B|--------------------------------------------------------------------|
G|-2-2-2-2-2-2-2-2-2-2-2-2-2-2-2-2-2-2-2-2-2-2-2-2-2-2-2-2-2-2-2-2-2--|
D|-2-2-2-2-2-2-2-2-2-2-2-2-2-2-2-2-2-2-2-2-2-2-2-2-2-2-2-2-2-2-2-2-2--|
A|-0-0-0-0-0-0-0-0-0-0-0-0-0-0-0-0-0-0-0-0-0-0-0-0-0-0-0-0-0-0-0-0-0--|
E|--------------------------------------------------------------------|


Guitar 2
e|---------------------------------------------------------------------|
B|---------------------------------1010101010101010101010101010101010--|
G|-9-9-9-9-9-9-9-9-9-9-9-9-9-9-9-9-9-9-9-9-9-9-9-9-9-9-9-9-9-9-9-9-9---|
D|-7-7-7-7-7-7-7-7-7-7-7-7-7-7-7-7-7-7-7-7-7-7-7-7-7-7-7-7-7-7-7-7-7---|
A|-0-0-0-0-0-0-0-0-0-0-0-0-0-0-0-0-0-0-0-0-0-0-0-0-0-0-0-0-0-0-0-0-0---|
E|---------------------------------------------------------------------|

There it is, enjoy.
I want to post or [tab]
guest
You may want to rate the tab now too:
select rating
Please do not post tabs as comments. Select "correction" instead!