Oops, an error
Loading. Please wait.

Janice It Aint Funny Tab

3,978 views 9 this week
1 commentread comment
1 2 3 4 5
excellent!
x 3
add to favorites launch autoscroll
font size
0
reset
Autoscroll
+/-
esc
set tempo
stop
Difficulty
Tuning
intermediate
D A D G B E
WARNING: You are trying to view
                                    content from Ultimate-Guitar.com
                                    in an unauthorized application,
                                    which is prohibited.

                                    Please use an official Ultimate
                                    Guitar Tabs application for iPhone,
                                    iPad or Android to access legitimate
                                    chords, guitar, bass, and drum tabs
                                    from Ultimate-Guitar.com database.

                                    Type "ultimate guitar tabs" in Apple
                                    App Store's or Android Market's
                                    search to find the application.
Song: Janice, It Ain't Funny
Artist: For All Those Sleeping
Album: Cross Your Fingers
Track: 4 of 10
Tuning: Drop D (DADGBe)


Intro
e|--------------------------------------------------------|
B|--------------------------------------------------------|
G|-77777-101010-55555555----------------------------------|
D|-xxxxx-xxxxxx-xxxxxxxx--(x5)----------------------------|
A|-55555-8-8-8--33333333----------------------------------|
D|--------------------------------------------------------|

Pre-Verse
e|------------------------------------------------------|
B|------------------------------------------------------|
G|------99999999/10101010---------1414141414141414-12---|
D|-0000-xxxxxxxx-x-x-x-x----0000--x-x-x-x-x-x-x-x--x----|
A|-0000-77777777/8-8-8-8----0000--1212121212121212\10---|
D|-0000---------------------0000------------------------|

Verse
e|--------------------------------------------------------|
B|--------------------------------------------------------|
G|-7------10-------14-------17----------------------------|
D|-x-(x16)-x-(x16)--x-(x16)--x-(x16)----------------------|
A|-5-------8-------12-------15----------------------------|
D|--------------------------------------------------------|

e|--------------------------------------------------------|
B|--------------------------------------------------------|
G|10-------5------3~--------------------------------------|
D|-x-(x16)-x-(x8)-x---------------------------------------|
A|-8-------3------1~--------------------------------------|
D|--------------------------------------------------------|

Breakdown
e|--------------------------------------------------------|
B|--------------------------------------------------------|
G|--------------------------------------------------------|
D|-00--00--0--00--00-------------00--00--0--00--00--------|
A|-00--00--0--00--00-------------00--00--0--00--00---(x4)-|
D|-00--00--0--00--00--/slideup---00--00--0--00--00--------|

Lead Guitar on-top of Breakdown.
e|--------------------------------------------------------|
B|--------------------------------------------------------|
G|-------------10p0---------------------------------------|
D|-7p0-7p0-8p0------8p0-7p0-7h8p7p0-----------------------|
A|--------------------------------------------------------|
D|--------------------------------------------------------|

e|--------------------------------------------------------|
B|--------------------------------------------------------|
G|-------------10p0---------7h8p7h8-----------------------|
D|-7p0-7p0-8p0------8p0-7p0-------------------------------|  Do the whole
A|--------------------------------------------------------|  thing twice
D|--------------------------------------------------------|

Pre-Chours
e|--------------------------------------------------------|
B|--------------------------------------------------------|
G|-3~---5~------------------------------------------------|
D|--------------------------------------------------------|
A|--------------------------------------------------------|
D|--------------------------------------------------------|

Chours
e|--------------------------------------------------------|
B|--------------------------------------------------------|
G|-77777-101010-55555555----------------------------------|
D|-xxxxx-xxxxxx-xxxxxxxx--(x4)----------------------------|
A|-55555-8-8-8--33333333----------------------------------|
D|--------------------------------------------------------|

e|---------------------------------------------------------|
B|---------------------------------------------------------|
G|-7------10-------14-------17-----------------------------|
D|-x-(x8)--x-(x8)---x-(x8)---x-(x8)------------------------|
A|-5-------8-------12-------15-----------------------------|
D|---------------------------------------------------------|

e|---------------------------------------------------------|
B|---------------------------------------------------------|
G|-7------10-------14-------12-----------------------------|
D|-x-(x8)--x-(x8)---x-(x8)---x-(x8)------------------------|
A|-5-------8-------12-------10-----------------------------|
D|---------------------------------------------------------|

Pre-Verse
e|------------------------------------------------------|
B|------------------------------------------------------|
G|------99999999/10101010---------1414141414141414-12---|
D|-0000-xxxxxxxx-x-x-x-x----0000--x-x-x-x-x-x-x-x--x----|
A|-0000-77777777/8-8-8-8----0000--1212121212121212\10---|
D|-0000---------------------0000------------------------|

Verse
e|--------------------------------------------------------|
B|--------------------------------------------------------|
G|-7------10-------14-------17----------------------------|
D|-x-(x16)-x-(x16)--x-(x16)--x-(x16)----------------------|
A|-5-------8-------12-------15----------------------------|
D|--------------------------------------------------------|

e|--------------------------------------------------------|
B|--------------------------------------------------------|
G|10-------5------3~--------------------------------------|
D|-x-(x16)-x-(x8)-x---------------------------------------|
A|-8-------3------1~--------------------------------------|
D|--------------------------------------------------------|

Breakdown
e|--------------------------------------------------------|
B|--------------------------------------------------------|
G|--------------------------------------------------------|
D|-00--00--0--00--00-------------00--00--0--00--00--------|
A|-00--00--0--00--00-------------00--00--0--00--00---(x4)-|
D|-00--00--0--00--00--/slideup---00--00--0--00--00--------|

Lead Guitar on-top of Breakdown.
e|--------------------------------------------------------|
B|--------------------------------------------------------|
G|-------------10p0---------------------------------------|
D|-7p0-7p0-8p0------8p0-7p0-7h8p7p0-----------------------|
A|--------------------------------------------------------|
D|--------------------------------------------------------|

e|--------------------------------------------------------|
B|--------------------------------------------------------|
G|-------------10p0---------7h8p7h8-----------------------|
D|-7p0-7p0-8p0------8p0-7p0-------------------------------|  Again, do the
A|--------------------------------------------------------|  whole thing
D|--------------------------------------------------------|  twice

Pre-Chours
e|--------------------------------------------------------|
B|--------------------------------------------------------|
G|-3~---5~------------------------------------------------|
D|--------------------------------------------------------|
A|--------------------------------------------------------|
D|--------------------------------------------------------|

Chours
e|--------------------------------------------------------|
B|--------------------------------------------------------|
G|-77777-101010-55555555----------------------------------|
D|-xxxxx-xxxxxx-xxxxxxxx--(x4)----------------------------|
A|-55555-8-8-8--33333333----------------------------------|
D|--------------------------------------------------------|

e|---------------------------------------------------------|
B|---------------------------------------------------------|
G|-7------10-------14-------17-----------------------------|
D|-x-(x8)--x-(x8)---x-(x8)---x-(x8)------------------------|
A|-5-------8-------12-------15-----------------------------|
D|---------------------------------------------------------|

e|--------------------------------------------------------|
B|--------------------------------------------------------|
G|-7------10-------14-------12----------------------------|
D|-x-(x8)--x-(x8)---x-(x8)---x-(x8)-----------------------|
A|-5-------8-------12-------10----------------------------|
D|--------------------------------------------------------|

Pre-Breakdown
e|--------------------------------------------------------|
B|--------------------------------------------------------|
G|--------------------------------------------------------|
D|--12p8s7h8----------------------------------------------|
A|--------------------------------------------------------|
D|--------------------------------------------------------|

Breakdown (Part 1)
e|--------------------------------------------------------|
B|--------------------------------------------------------|
G|--------------------------------------------------------|
D|-000-000-000--------------------------------------------|
A|-000-000-000--(x4)--------------------------------------|
D|-000-000-000--------------------------------------------|
   ... ... ...
Lead over breakdown
e|--------------------------------------------------------|
B|--5t----6t---8t---5t---6t-------------------------------|
G|--------------------------------------------------------|
D|--------------------------------------------------------|
A|--------------------------------------------------------|
D|--------------------------------------------------------|

Breakdown (Part 2)
e|--------------------------------------------------------|
B|--------------------------------------------------------|
G|--------------------------------------------------------|
D|-000~-000~-000~-0~-00~--0~-00~--------------------------|
A|-000~-000~-000~-0~-00~--0~-00~---(x2)-------------------|
D|-000~-000~-000~-0~-00~--0~-00~--------------------------|
   ...  ...  ...  .  ..   .  ..

Breakdown (Part 3)
e|--------------------------------------------------------|
B|--------------------------------------------------------|
G|--------------------------------------------------------|
D|-000-000-000-0-00--0-00---------------------------------|
A|-000-000-000-0-00--0-00---(x2)--------------------------|
D|-000-000-000-0-00--0-00---------------------------------|
   ... ... ... . ..  . ..

Breakdown (Part 4)
e|--------------------------------------------------------|
B|--------------------------------------------------------|
G|--------------------------------------------------------|
D|-000~-000~-000~-0~-00~--0~-00~--------------------------|
A|-000~-000~-000~-0~-00~--0~-00~---(x2)-------------------|
D|-111~-111~-111~-1~-11~--1~-11~--------------------------|
   ...  ...  ...  .  ..   .  ..

Breakdown (Part 5)
e|--------------------------------------------------------|
B|--------------------------------------------------------|
G|--------------------------------------------------------|
D|-000-000-000-0-00--0-00---------------------------------|
A|-000-000-000-0-00--0-00---(x2)--------------------------|
D|-000-000-000-0-00--0-00---------------------------------|
   ... ... ... . ..  . ..

Pre-Chours
e|--------------------------------------------------------|
B|--------------------------------------------------------|
G|-3~---5~------------------------------------------------|
D|--------------------------------------------------------|
A|--------------------------------------------------------|
D|--------------------------------------------------------|

Chours
e|--------------------------------------------------------|
B|--------------------------------------------------------|
G|-77777-101010-55555555----------------------------------|
D|-xxxxx-xxxxxx-xxxxxxxx--(x4)----------------------------|
A|-55555-8-8-8--33333333----------------------------------|
D|--------------------------------------------------------|

e|--------------------------------------------------------
B|--------------------------------------------------------
G|-7------10-------14-------17---------------------------- <-\
D|-x-(x8)--x-(x8)---x-(x8)---x-(x8)-----------------------   |
A|-5-------8-------12-------15----------------------------   |
D|--------------------------------------------------------   |
                                                          Play through this
e|--------------------------------------------------------twice  
B|--------------------------------------------------------   |
G|-7------10-------14-------12----------------------------   |
D|-x-(x8)--x-(x8)---x-(x8)---x-(x8)-----------------------   |
A|-5-------8-------12-------10---------------------------- <-/
D|--------------------------------------------------------

Outro
e|------------------------------------------------------|
B|------------------------------------------------------|
G|------99999999/10101010---------1414141414141414-12---|
D|-0000-xxxxxxxx-x-x-x-x----0000--x-x-x-x-x-x-x-x--x----|
A|-0000-77777777/8-8-8-8----0000--1212121212121212\10---|
D|-0000---------------------0000------------------------|
comments
We did not receive enough feedback on this tab! Please rate:
print report bad tab
1 2 3 4 5
1 comment total.
0 reply
ninjagayden777 wrote on May 11 2011, 11:43 am

Some minor bits sound inaccurate, but as a whole this is pretty good. 4*

I want to post or [tab]
guest
You may want to rate the tab now too:
select rating
Please do not post tabs as comments. Select "correction" instead!