Oops, an error
Loading. Please wait.

December Everyday Tab

14,479 views 3 this week
5 commentsread comments
1 2 3 4 5
accurate
x 4
Autoscroll
+/-
esc
set tempo
stop
Difficulty
Tuning
intermediate
A# F A# D# G C
WARNING: You are trying to view
                                    content from Ultimate-Guitar.com
                                    in an unauthorized application,
                                    which is prohibited.

                                    Please use an official Ultimate
                                    Guitar Tabs application for iPhone,
                                    iPad or Android to access legitimate
                                    chords, guitar, bass, and drum tabs
                                    from Ultimate-Guitar.com database.

                                    Type "ultimate guitar tabs" in Apple
                                    App Store's or Android Market's
                                    search to find the application.
December Everyday
tabbed by Kyle Blamy

This is done by ear so there might be a few notes off but i think its pretty solid. 

wordlifejc@msn.com

   Jim Hocking  - Guitar                                
C  :--------12--------|15---------------|------------------|
G  :-------------13---|-----------------|------------------|
Eb :------------------|-----------------|14-------14-------|
Bb :------------------|-----------------|15-------15-------|
F  :------------------|-----------------|12---0-0-12---0-0-|
Bb :------------------|-----------------|-----0-0------0-0-|

   Chris Cain -  Guitar                                 
C  :---------5--------|-0---------------|------------------|
G  :--------------6---|-0---------------|------------------|
Eb :------------------|-----------------|14-------14-------|
Bb :------------------|-----------------|15-------15-------|
F  :------------------|-----------------|12---0-0-12---0-0-|
Bb :------------------|-----------------|-----0-0------0-0-|

============================================================================

                                                               
C  :------------------|-------------------|12------------------|
G  :------------------|----13-------------|-----13--------13---|
Eb :----14-------14---|---------14--------|----------14--------|
Bb :----15-------15---|--------------15---|--------------------|
F  :0-0-12---0-0-12---|0----*-------------|--------------------|
Bb :0-0------0-0------|0----*-------------|--------------------|

                                                               
C  :------------------|----12-------------|15------------------|
G  :------------------|---------13--------|-----17--------17---|
Eb :----14-------14---|--------------14---|----------17--------|
Bb :----15-------15---|-------------------|--------------------|
F  :0-0-12---0-0-12---|0----*-------------|--------------------|
Bb :0-0------0-0------|0----*-------------|--------------------|

============================================================================

                                                            
C  :------------------|------------------|------------------|
G  :------------------|------------------|------------------|
Eb :14-------14-------|----14-------14---|----14---14-------|
Bb :15-------15-------|----15-------15---|----15---15-------|
F  :12---0-0-12---0-0-|0-0-12---0-0-12---|0---12---12---0---|
Bb :-----0-0------0-0-|0-0------0-0------|0-------------0---|

                                                            
C  :------------------|------------------|------------------|
G  :------------------|------------------|------------------|
Eb :14-------14-------|----14-------14---|----14---14-------|
Bb :15-------15-------|----15-------15---|----15---15-------|
F  :12---0-0-12---0-0-|0-0-12---0-0-12---|0---12---12---0---|
Bb :-----0-0------0-0-|0-0------0-0------|0-------------0---|

============================================================================

                                                               
C  :---------------------|------------------|------------------|
G  :13-13-13-13-13-------|------------------|------------------|
Eb :14-14-14-14-14-------|14-------14-------|----14-------14---|
Bb :15-15-15-15-15---*---|15-------15-------|----15-------15---|
F  :---------------------|12---0-0-12---0-0-|0-0-12---0-0-12---|
Bb :---------------------|-----0-0------0-0-|0-0------0-0------|

                                                               
C  :---------------------|------------------|------------------|
G  :17-17-17-17-17---*---|------------------|------------------|
Eb :17-17-17-17-17-------|14-------14-------|----14-------14---|
Bb :---------------------|15-------15-------|----15-------15---|
F  :---------------------|12---0-0-12---0-0-|0-0-12---0-0-12---|
Bb :---------------------|-----0-0------0-0-|0-0------0-0------|

============================================================================

                                                               
C  :-------------------|12------------------|------------------|
G  :----13-------------|-----13--------13---|------------------|
Eb :---------14--------|----------14--------|14-------14-------|
Bb :--------------15---|--------------------|15-------15-------|
F  :0----*-------------|--------------------|12---0-0-12---0-0-|
Bb :0----*-------------|--------------------|-----0-0------0-0-|

                                                               
C  :----12-------------|15------------------|------------------|
G  :---------13--------|-----17--------17---|------------------|
Eb :--------------14---|----------17--------|14-------14-------|
Bb :-------------------|--------------------|15-------15-------|
F  :0----*-------------|--------------------|12---0-0-12---0-0-|
Bb :0----*-------------|--------------------|-----0-0------0-0-|

============================================================================

                                                               
C  :------------------|------------------|---------------------|
G  :------------------|------------------|13-13-13-13-13-------|
Eb :----14-------14---|----14---14-------|14-14-14-14-14-------|
Bb :----15-------15---|----15---15-------|15-15-15-15-15---*---|
F  :0-0-12---0-0-12---|0---12---12---0---|---------------------|
Bb :0-0------0-0------|0-------------0---|---------------------|

                                                               
C  :------------------|------------------|---------------------|
G  :------------------|------------------|17-17-17-17-17---*---|
Eb :----14-------14---|----14---14-------|17-17-17-17-17-------|
Bb :----15-------15---|----15---15-------|---------------------|
F  :0-0-12---0-0-12---|0---12---12---0---|---------------------|
Bb :0-0------0-0------|0-------------0---|---------------------|

============================================================================

                                                                       
C  :----------------|----------------|----------------|----------------|
G  :----------------|----------------|----------------|----------------|
Eb :----------------|----------------|----------------|----------------|
Bb :----------------|----------------|----------------|----------------|
F  :----------------|----------------|----------------|----------------|
Bb :0---0-0-0---0-0-|0-0-0---0-0-0---|0-0-0---0---0-0-|0---0---0-0-0-0-|

                                                                       
C  :----------------|----------------|----------------|----------------|
G  :----------------|----------------|----------------|----------------|
Eb :----------------|----------------|----------------|----------------|
Bb :----------------|----------------|----------------|----------------|
F  :----------------|----------------|----------------|----------------|
Bb :0---0-0-0---0-0-|0-0-0---0-0-0---|0-0-0---0---0-0-|0---0---0-0-0-0-|

============================================================================

                                                      
C  :----------------|----------------|----------------|
G  :----------------|----------------|----------------|
Eb :----------------|----------------|----------------|
Bb :----------------|----------------|----------------|
F  :----------------|----------------|----------------|
Bb :0---0-0-0---0-0-|0-0-0---0---0---|----0---0---0---|

                                                      
C  :----------------|----------------|----------------|
G  :----------------|----------------|----------------|
Eb :----------------|----------------|----------------|
Bb :----------------|----------------|----------------|
F  :----------------|----------------|----------------|
Bb :0---0-0-0---0-0-|0-0-0---0---0---|----0---0---0---|

============================================================================

                                                           
C  :---------------------|----------------|----------------|
G  :13-13-13-13-13-------|----------------|----------------|
Eb :14-14-14-14-14-------|----------------|----------------|
Bb :15-15-15-15-15---*---|----------------|----------------|
F  :---------------------|----------------|----------------|
Bb :---------------------|0---0-0-0---0-0-|0-0-0---0-0-0---|

                                                           
C  :---------------------|----------------|----------------|
G  :13-13-13-13-13-------|----------------|----------------|
Eb :14-14-14-14-14-------|----------------|----------------|
Bb :15-15-15-15-15---*---|----------------|----------------|
F  :---------------------|----------------|----------------|
Bb :---------------------|0---0-0-0---0-0-|0-0-0---0-0-0---|

============================================================================

                                                                       
C  :----------------|----------------|----------------|----------------|
G  :----------------|----------------|----------------|----------------|
Eb :----------------|----------------|----------------|----------------|
Bb :----------------|----------------|----------------|----------------|
F  :----------------|----------------|----------------|----------------|
Bb :0-0-0---0---0-0-|0---0---0-0-0-0-|0---0-0-0---0-0-|0-0-0---0---0---|

                                                                       
C  :----------------|----------------|----------------|----------------|
G  :----------------|----------------|----------------|----------------|
Eb :----------------|----------------|----------------|----------------|
Bb :----------------|----------------|----------------|----------------|
F  :----------------|----------------|----------------|----------------|
Bb :0-0-0---0---0-0-|0---0---0-0-0-0-|0---0-0-0---0-0-|0-0-0---0---0---|

============================================================================

                                                           
C  :----------------|---------------------|----------------|
G  :----------------|13-13-13-13-13-------|----------------|
Eb :----------------|14-14-14-14-14-------|----------------|
Bb :----------------|15-15-15-15-15---*---|----------------|
F  :----------------|---------------------|0-0-0-0-0-------|
Bb :----0---0---0---|---------------------|0-0-0-0-0---*---|

                                                           
C  :----------------|---------------------|----------------|
G  :----------------|13-13-13-13-13-------|----------------|
Eb :----------------|14-14-14-14-14-------|----------------|
Bb :----------------|15-15-15-15-15---*---|----------------|
F  :----------------|---------------------|0-0-0-0-0-------|
Bb :----0---0---0---|---------------------|0-0-0-0-0---*---|

============================================================================

                                                                           
C  :--------------------|----------------|----------------|----------------|
G  :--------------------|----------------|----------------|----------------|
Eb :--------------------|----------------|----------------|----------------|
Bb :--------------------|----------------|----------------|----------------|
F  :----0-0-0-0-0---0---|0-----0-----0---|0-----0-----0---|0-0-0-0-0-------|
Bb :----0-0-0-0-0---0---|0-----0-----0---|0-----0-----0---|0-0-0-0-0---*---|

                                                                           
C  :--------------------|----------------|----------------|----------------|
G  :--------------------|----------------|----------------|----------------|
Eb :--------------------|----------------|----------------|----------------|
Bb :--------------------|----------------|----------------|----------------|
F  :----0-0-0-0-0---0---|0-----0-----0---|0-----0-----0---|0-0-0-0-0-------|
Bb :----0-0-0-0-0---0---|0-----0-----0---|0-----0-----0---|0-0-0-0-0---*---|

============================================================================

                                                                       
C  :----------------|----------------|----------------|----------------|
G  :----------------|----------------|----------------|----------------|
Eb :----------------|----------------|----------------|----------------|
Bb :----------------|----------------|----------------|----------------|
F  :----0-0-0---0---|0-----0-----0---|0-----0-----0---|0-0-0-0-0-------|
Bb :----0-0-0---0---|0-----0-----0---|0-----0-----0---|0-0-0-0-0---*---|

                                                                       
C  :----------------|----------------|----------------|----------------|
G  :----------------|----------------|----------------|----------------|
Eb :----------------|----------------|----------------|----------------|
Bb :----------------|----------------|----------------|----------------|
F  :----0-0-0---0---|0-----0-----0---|0-----0-----0---|0-0-0-0-0-------|
Bb :----0-0-0---0---|0-----0-----0---|0-----0-----0---|0-0-0-0-0---*---|

============================================================================

                                                                           
C  :--------------------|----------------|----------------|----------------|
G  :--------------------|----------------|----------------|----------------|
Eb :--------------------|----------------|----------------|----------------|
Bb :--------------------|----------------|----------------|----------------|
F  :----0-0-0-0-0---0---|0-----0-----0---|0-----0-----0---|0-0-0-0-0-------|
Bb :----0-0-0-0-0---0---|0-----0-----0---|0-----0-----0---|0-0-0-0-0---*---|

                                                                           
C  :--------------------|----------------|----------------|----------------|
G  :--------------------|----------------|----------------|----------------|
Eb :--------------------|----------------|----------------|----------------|
Bb :--------------------|----------------|----------------|----------------|
F  :----0-0-0-0-0---0---|0-----0-----0---|0-----0-----0---|0-0-0-0-0-------|
Bb :----0-0-0-0-0---0---|0-----0-----0---|0-----0-----0---|0-0-0-0-0---*---|

============================================================================

                                                                        
C  :----------------|----------------|----------------|12---------------|
G  :----------------|----------------|----------------|13---------------|
Eb :----------------|----------------|----------------|14---------------|
Bb :----------------|----------------|----------------|-----------------|
F  :----0-0-0---0---|0-0-0-0---0-0---|0-0-0-0---0-0---|-----------------|
Bb :----0-0-0---0---|0-0-0-0---0-0---|0-0-0-0---0-0---|-----------------|

                                                                        
C  :----------------|----------------|----------------|-----------------|
G  :----------------|----------------|----------------|17---------------|
Eb :----------------|----------------|----------------|17---------------|
Bb :----------------|----------------|----------------|-----------------|
F  :----0-0-0---0---|0-0-0-0---0-0---|0-0-0-0---0-0---|-----------------|
Bb :----0-0-0---0---|0-0-0-0---0-0---|0-0-0-0---0-0---|-----------------|

============================================================================

                                                                          
C  :----------------|----------------|----------------|12---13-------20---|
G  :----------------|----------------|----------------|-------------------|
Eb :----------------|----------------|----------------|-------------------|
Bb :----------------|----------------|----------------|-------------------|
F  :----------------|----------------|----------------|-------------------|
Bb :----------------|----------------|----------------|-------------------|

                                                                          
C  :----------------|----------------|----------------|-------------------|
G  :----------------|----------------|----------------|-------------------|
Eb :----------------|----------------|----------------|-------------------|
Bb :----------------|----------------|----------------|-0----0--------0---|
F  :----------------|----------------|----------------|-0----0-----0--0---|
Bb :----------------|----------------|----------------|-0----0-----0--0---|

============================================================================

                                                              
C  :----------------|12---13-------------|--------------------|
G  :----------------|---------------13---|--------------------|
Eb :----------------|--------------------|--------------------|
Bb :----------------|--------------------|--------------------|
F  :----------------|--------------------|--------------------|
Bb :----------------|--------------------|--------------------|

                                                              
C  :----------------|--------------------|--------------------|
G  :----------------|10---10-----10-10---|10---10-----10-10---|
Eb :----------------|10---10-----10-10---|10---10-----10-10---|
Bb :0---0-------0---|-8----8------8--8---|-8----8------8--8---|
F  :0---0-----0-0---|-8----8------8--8---|-8----8------8--8---|
Bb :0---0-----0-0---|-8----8------8--8---|-8----8------8--8---|

============================================================================

                                                               
C  :12---13-------15---|----12-----------|12---13---12---------|
G  :-------------------|-----------------|----------------13---|
Eb :-------------------|-----------------|---------------------|
Bb :-------------------|-----------------|---------------------|
F  :-------------------|-----------------|---------------------|
Bb :-------------------|-----------------|---------------------|

                                                               
C  :-------------------|-----------------|---------------------|
G  :-------------------|-----------------|10---10------10-10---|
Eb :-7----7-----7--7---|7----7-----7-7---|10---10------10-10---|
Bb :-5----5-----5--5---|5----5-----5-5---|-8----8-------8--8---|
F  :-5----5-----5--5---|5----5-----5-5---|-8----8-------8--8---|
Bb :-5----5-----5--5---|5----5-----5-5---|-8----8-------8--8---|

============================================================================

                                                              
C  :--------------------|12---13-------20---|----13-----------|
G  :--------------------|-------------------|-----------------|
Eb :-9---10---9---------|-------------------|-----------------|
Bb :---------------10---|-------------------|-----------------|
F  :--------------------|-------------------|-----------------|
Bb :--------------------|-------------------|-----------------|

                                                              
C  :--------------------|-------------------|-----------------|
G  :10---10-----10-10---|-------------------|-----------------|
Eb :10---10-----10-10---|-------------------|-----------------|
Bb :-8----8------8--8---|-0----0--------0---|0----0-------0---|
F  :-8----8------8--8---|-0----0-----0--0---|0----0-----0-0---|
Bb :-8----8------8--8---|-0----0-----0--0---|0----0-----0-0---|

============================================================================

                                                                  
C  :12---13---12---------|-----12-------------|12---13-------15---|
G  :----------------13---|--------------------|-------------------|
Eb :---------------------|--------------------|-------------------|
Bb :---------------------|--------------------|-------------------|
F  :---------------------|--------------------|-------------------|
Bb :---------------------|--------------------|-------------------|

                                                                  
C  :---------------------|--------------------|-------------------|
G  :10---10------10-10---|10---10-----10-10---|-------------------|
Eb :10---10------10-10---|10---10-----10-10---|-7----7-----7--7---|
Bb :-8----8-------8--8---|-8----8------8--8---|-5----5-----5--5---|
F  :-8----8-------8--8---|-8----8------8--8---|-5----5-----5--5---|
Bb :-8----8-------8--8---|-8----8------8--8---|-5----5-----5--5---|

============================================================================

                                                                
C  :----12-----------|12---13---12---------|--------------------|
G  :-----------------|----------------13---|--------------------|
Eb :-----------------|---------------------|-9---10---9---------|
Bb :-----------------|---------------------|---------------10---|
F  :-----------------|---------------------|--------------------|
Bb :-----------------|---------------------|--------------------|

                                                                
C  :-----------------|---------------------|--------------------|
G  :-----------------|10---10------10-10---|10---10-----10-10---|
Eb :7----7-----7-7---|10---10------10-10---|10---10-----10-10---|
Bb :5----5-----5-5---|-8----8-------8--8---|-8----8------8--8---|
F  :5----5-----5-5---|-8----8-------8--8---|-8----8------8--8---|
Bb :5----5-----5-5---|-8----8-------8--8---|-8----8------8--8---|

============================================================================

                                                                  
C  :12---13---12--------|12------------------|-----12-------------|
G  :---------------13---|-----13--------13---|13--------13--------|
Eb :--------------------|----------14--------|---------------14---|
Bb :--------------------|--------------------|--------------------|
F  :--------------------|--------------------|--------------------|
Bb :--------------------|--------------------|--------------------|

                                                                  
C  :--------------------|--------------------|--------------------|
G  :--------------------|--------------------|--------------------|
Eb :--------------------|--------------------|--------------------|
Bb :-0----0----0----0---|-0----0----0----0---|-8----8----8----8---|
F  :-0----0----0----0---|-0----0----0----0---|-8----8----8----8---|
Bb :-0----0----0----0---|-0----0----0----0---|-8----8----8----8---|

============================================================================

                                                                
C  :------------------|12-------------12---|----------12--------|
G  :------------------|-----13-------------|13-------------13---|
Eb :9---10---9--------|----------14--------|-----14-------------|
Bb :-------------10---|--------------------|--------------------|
F  :------------------|--------------------|--------------------|
Bb :------------------|--------------------|--------------------|

                                                                
C  :------------------|--------------------|--------------------|
G  :------------------|--------------------|--------------------|
Eb :------------------|--------------------|--------------------|
Bb :8----8---8----8---|-5----5----5----5---|-5----5----5----5---|
F  :8----8---8----8---|-5----5----5----5---|-5----5----5----5---|
Bb :8----8---8----8---|-5----5----5----5---|-5----5----5----5---|

============================================================================

                                                                  
C  :15-------------15---|----------15--------|12---13---12--------|
G  :-----13-------------|13-------------13---|---------------13---|
Eb :----------14--------|-----14-------------|--------------------|
Bb :--------------------|--------------------|--------------------|
F  :--------------------|--------------------|--------------------|
Bb :--------------------|--------------------|--------------------|

                                                                  
C  :--------------------|--------------------|--------------------|
G  :--------------------|--------------------|--------------------|
Eb :--------------------|--------------------|--------------------|
Bb :-8----8----8----8---|-8----8----8----8---|-0----0----0----0---|
F  :-8----8----8----8---|-8----8----8----8---|-0----0----0----0---|
Bb :-8----8----8----8---|-8----8----8----8---|-0----0----0----0---|

============================================================================

                                                                
C  :12------------------|-----12-------------|------------------|
G  :-----13--------13---|13--------13--------|------------------|
Eb :----------14--------|---------------14---|9---10---9--------|
Bb :--------------------|--------------------|-------------10---|
F  :--------------------|--------------------|------------------|
Bb :--------------------|--------------------|------------------|

                                                                
C  :--------------------|--------------------|------------------|
G  :--------------------|--------------------|------------------|
Eb :--------------------|--------------------|------------------|
Bb :-0----0----0----0---|-8----8----8----8---|8----8---8----8---|
F  :-0----0----0----0---|-8----8----8----8---|8----8---8----8---|
Bb :-0----0----0----0---|-8----8----8----8---|8----8---8----8---|

============================================================================

                                                                  
C  :12-------------12---|----------12--------|15-------------15---|
G  :-----13-------------|13-------------13---|-----13-------------|
Eb :----------14--------|-----14-------------|----------14--------|
Bb :--------------------|--------------------|--------------------|
F  :--------------------|--------------------|--------------------|
Bb :--------------------|--------------------|--------------------|

                                                                  
C  :--------------------|--------------------|--------------------|
G  :--------------------|--------------------|--------------------|
Eb :--------------------|--------------------|--------------------|
Bb :-5----5----5----5---|-5----5----5----5---|-8----8----8----8---|
F  :-5----5----5----5---|-5----5----5----5---|-8----8----8----8---|
Bb :-5----5----5----5---|-5----5----5----5---|-8----8----8----8---|

============================================================================

                                                                  
C  :----------15--------|12---13---12--------|12------------------|
G  :13-------------13---|---------------13---|-----13--------13---|
Eb :-----14-------------|--------------------|----------14--------|
Bb :--------------------|--------------------|--------------------|
F  :--------------------|--------------------|--------------------|
Bb :--------------------|--------------------|--------------------|

                                                                  
C  :--------------------|--------------------|--------------------|
G  :--------------------|--------------------|--------------------|
Eb :--------------------|--------------------|--------------------|
Bb :-8----8----8----8---|-0----0----0----0---|-0----0----0----0---|
F  :-8----8----8----8---|-0----0----0----0---|-0----0----0----0---|
Bb :-8----8----8----8---|-0----0----0----0---|-0----0----0----0---|

============================================================================

                                                                
C  :-----12-------------|------------------|12-------------12---|
G  :13--------13--------|------------------|-----13-------------|
Eb :---------------14---|9---10---9--------|----------14--------|
Bb :--------------------|-------------10---|--------------------|
F  :--------------------|------------------|--------------------|
Bb :--------------------|------------------|--------------------|

                                                                
C  :--------------------|------------------|--------------------|
G  :--------------------|------------------|--------------------|
Eb :--------------------|------------------|--------------------|
Bb :-8----8----8----8---|8----8---8----8---|-5----5----5----5---|
F  :-8----8----8----8---|8----8---8----8---|-5----5----5----5---|
Bb :-8----8----8----8---|8----8---8----8---|-5----5----5----5---|

============================================================================

                                                                  
C  :----------12--------|15-------------15---|----------15--------|
G  :13-------------13---|-----13-------------|13-------------13---|
Eb :-----14-------------|----------14--------|-----14-------------|
Bb :--------------------|--------------------|--------------------|
F  :--------------------|--------------------|--------------------|
Bb :--------------------|--------------------|--------------------|

                                                                  
C  :--------------------|--------------------|--------------------|
G  :--------------------|--------------------|--------------------|
Eb :--------------------|--------------------|--------------------|
Bb :-5----5----5----5---|-8----8----8----8---|-8----8----8----8---|
F  :-5----5----5----5---|-8----8----8----8---|-8----8----8----8---|
Bb :-5----5----5----5---|-8----8----8----8---|-8----8----8----8---|

============================================================================

                                                                  
C  :12---13---12--------|12------------------|-----12-------------|
G  :---------------13---|-----13--------13---|13--------13--------|
Eb :--------------------|----------14--------|---------------14---|
Bb :--------------------|--------------------|--------------------|
F  :--------------------|--------------------|--------------------|
Bb :--------------------|--------------------|--------------------|

                                                                  
C  :--------------------|--------------------|--------------------|
G  :--------------------|--------------------|--------------------|
Eb :--------------------|--------------------|--------------------|
Bb :-0----0----0----0---|-0----0----0----0---|-8----8----8----8---|
F  :-0----0----0----0---|-0----0----0----0---|-8----8----8----8---|
Bb :-0----0----0----0---|-0----0----0----0---|-8----8----8----8---|

============================================================================

                                                                
C  :------------------|12-------------12---|----------12--------|
G  :------------------|-----13-------------|13-------------13---|
Eb :9---10---9--------|----------14--------|-----14-------------|
Bb :-------------10---|--------------------|--------------------|
F  :------------------|--------------------|--------------------|
Bb :------------------|--------------------|--------------------|

                                                                
C  :------------------|--------------------|--------------------|
G  :------------------|--------------------|--------------------|
Eb :------------------|--------------------|--------------------|
Bb :8----8---8----8---|-5----5----5----5---|-5----5----5----5---|
F  :8----8---8----8---|-5----5----5----5---|-5----5----5----5---|
Bb :8----8---8----8---|-5----5----5----5---|-5----5----5----5---|

============================================================================

                                                               
C  :15-------------15---|----------15--------|-----------------|
G  :-----13-------------|13-------------13---|-----------------|
Eb :----------14--------|-----14-------------|9-----5-----12---|
Bb :--------------------|--------------------|-----------------|
F  :--------------------|--------------------|7-----3-----10---|
Bb :--------------------|--------------------|-----------------|

                                                               
C  :--------------------|--------------------|-----------------|
G  :--------------------|--------------------|-----------------|
Eb :--------------------|--------------------|-----------------|
Bb :-8----8----8----8---|-8----8----8----8---|------5------5---|
F  :-8----8----8----8---|-8----8----8----8---|2-----3------5---|
Bb :-8----8----8----8---|-8----8----8----8---|2------------5---|

============================================================================

                                                                       
C  :----------------|----------------|----------------|----------------|
G  :----------------|----------------|----------------|----------------|
Eb :----------------|----------------|----------------|----------------|
Bb :----------------|----------------|----------------|----------------|
F  :----------------|----------------|----------------|0-0-0-0-0-------|
Bb :----------------|----------------|----------------|0-0-0-0-0---*---|

                                                                       
C  :----------------|----------------|----------------|----------------|
G  :----------------|----------------|----------------|----------------|
Eb :----------------|----------------|----------------|----------------|
Bb :----------------|----------------|----------------|----------------|
F  :----------------|----------------|----------------|0-0-0-0-0-------|
Bb :----------------|----------------|----------------|0-0-0-0-0---*---|

============================================================================

                                                                           
C  :--------------------|----------------|----------------|----------------|
G  :--------------------|----------------|----------------|----------------|
Eb :--------------------|----------------|----------------|----------------|
Bb :--------------------|----------------|----------------|----------------|
F  :----0-0-0-0-0---0---|0-----0-----0---|0-----0-----0---|0-0-0-0-0-------|
Bb :----0-0-0-0-0---0---|0-----0-----0---|0-----0-----0---|0-0-0-0-0---*---|

                                                                           
C  :--------------------|----------------|----------------|----------------|
G  :--------------------|----------------|----------------|----------------|
Eb :--------------------|----------------|----------------|----------------|
Bb :--------------------|----------------|----------------|----------------|
F  :----0-0-0-0-0---0---|0-----0-----0---|0-----0-----0---|0-0-0-0-0-------|
Bb :----0-0-0-0-0---0---|0-----0-----0---|0-----0-----0---|0-0-0-0-0---*---|

============================================================================

                                                                       
C  :----------------|----------------|----------------|----------------|
G  :----------------|----------------|----------------|----------------|
Eb :----------------|----------------|----------------|----------------|
Bb :----------------|----------------|----------------|----------------|
F  :----0-0-0---0---|0-----0-----0---|0-----0-----0---|0-0-0-0-0-------|
Bb :----0-0-0---0---|0-----0-----0---|0-----0-----0---|0-0-0-0-0---*---|

                                                                       
C  :----------------|----------------|----------------|----------------|
G  :----------------|----------------|----------------|----------------|
Eb :----------------|----------------|----------------|----------------|
Bb :----------------|----------------|----------------|----------------|
F  :----0-0-0---0---|0-----0-----0---|0-----0-----0---|0-0-0-0-0-------|
Bb :----0-0-0---0---|0-----0-----0---|0-----0-----0---|0-0-0-0-0---*---|

============================================================================

                                                                           
C  :--------------------|----------------|----------------|----------------|
G  :--------------------|----------------|----------------|----------------|
Eb :--------------------|----------------|----------------|----------------|
Bb :--------------------|----------------|----------------|----------------|
F  :----0-0-0-0-0---0---|0-----0-----0---|0-----0-----0---|0-0-0-0-0-------|
Bb :----0-0-0-0-0---0---|0-----0-----0---|0-----0-----0---|0-0-0-0-0---*---|

                                                                           
C  :--------------------|----------------|----------------|----------------|
G  :--------------------|----------------|----------------|----------------|
Eb :--------------------|----------------|----------------|----------------|
Bb :--------------------|----------------|----------------|----------------|
F  :----0-0-0-0-0---0---|0-----0-----0---|0-----0-----0---|0-0-0-0-0-------|
Bb :----0-0-0-0-0---0---|0-----0-----0---|0-----0-----0---|0-0-0-0-0---*---|

============================================================================

                                                                       
C  :----------------|----------------|----------------|----------------|
G  :----------------|----------------|----------------|----------------|
Eb :----------------|----------------|----------------|----------------|
Bb :----------------|----------------|----------------|----------------|
F  :----0-0-0---0---|0-0-0-0---0-0---|0-0-0-0---0-0---|0---0---0---1---|
Bb :----0-0-0---0---|0-0-0-0---0-0---|0-0-0-0---0-0---|0---0---0---1---|

                                                                       
C  :----------------|----------------|----------------|----------------|
G  :----------------|----------------|----------------|----------------|
Eb :----------------|----------------|----------------|----------------|
Bb :----------------|----------------|----------------|----------------|
F  :----0-0-0---0---|0-0-0-0---0-0---|0-0-0-0---0-0---|0---------------|
Bb :----0-0-0---0---|0-0-0-0---0-0---|0-0-0-0---0-0---|0---*-----------|

============================================================================

                                                                       
C  :----------------|----------------|----------------|----------------|
G  :----------------|----------------|----------------|----------------|
Eb :----------------|----------------|----------------|----------------|
Bb :----------------|----------------|----------------|----------------|
F  :4---0---0---0---|0---4---1---0---|1---0---0---0---|0---0---0---1---|
Bb :4---0---0---0---|0---4---1---0---|1---0---0---0---|0---0---0---1---|

                                                                       
C  :----------------|----------------|----------------|----------------|
G  :----------------|----------------|----------------|----------------|
Eb :----------------|----------------|----------------|----------------|
Bb :----------------|----------------|----------------|----------------|
F  :----------------|----------------|----------------|----------------|
Bb :----------------|----------------|----------------|----------------|

============================================================================

                                                                       
C  :----------------|----------------|----------------|----------------|
G  :----------------|----------------|----------------|----------------|
Eb :----------------|----5-------7---|----8---7---5---|----------------|
Bb :----------------|----------------|----------------|----------------|
F  :4---0---0---0---|0---3---0---5---|0---6---5---3---|0---0---0---1---|
Bb :4---0---0---0---|0-------0-------|0---------------|0---0---0---1---|

                                                                       
C  :----------------|----------------|----------------|----------------|
G  :----------------|----------------|----------------|----------------|
Eb :----------------|----5-------7---|----8---7---5---|----------------|
Bb :----------------|----------------|----------------|----------------|
F  :----------------|0---3---0---5---|0---6---5---3---|0---0---0---1---|
Bb :----------------|0-------0-------|0---------------|0---0---0---1---|

============================================================================

                                                                       
C  :----------------|----------------|----------------|----------------|
G  :----------------|----------------|----------------|----------------|
Eb :----------------|----------------|----------------|----------------|
Bb :----------------|----------------|----------------|----------------|
F  :4---0---0---0---|0---4---1---0---|1---0---0---0---|0---0---0---1---|
Bb :4---0---0---0---|0---4---1---0---|1---0---0---0---|0---0---0---1---|

                                                                       
C  :----------------|----------------|----------------|----------------|
G  :----------------|----------------|----------------|----------------|
Eb :----------------|----------------|----------------|----------------|
Bb :----------------|----------------|----------------|----------------|
F  :4---0---0---0---|0---4---1---0---|1---0---0---0---|0---0---0---1---|
Bb :4---0---0---0---|0---4---1---0---|1---0---0---0---|0---0---0---1---|

============================================================================

                                                                         
C  :----------------|-----------------|-----------------|----------------|
G  :----------------|-----------------|-----------------|----------------|
Eb :----------------|-----------------|-----------------|----------------|
Bb :----------------|-----------------|-----------------|----------------|
F  :4---0---0---0---|-----------------|-----------------|0---0---0---1---|
Bb :4---0---0---0---|12-0-0-0-0-0-0-0-|12-0-0-0-0-0-0-0-|0---0---0---1---|

                                                                         
C  :----------------|-----------------|-----------------|----------------|
G  :----------------|-----------------|-----------------|----------------|
Eb :----------------|-----------------|-----------------|----------------|
Bb :----------------|-----------------|-----------------|----------------|
F  :4---0---0---0---|-----------------|-----------------|0---0---0---1---|
Bb :4---0---0---0---|12-0-0-0-0-0-0-0-|12-0-0-0-0-0-0-0-|0---0---0---1---|

============================================================================

                                                                       
C  :----------------|----------------|----------------|----------------|
G  :----------------|----------------|----------------|----------------|
Eb :----------------|----------------|----------------|----------------|
Bb :----------------|----------------|----------------|----------------|
F  :4---0---0---0---|0---4---1---0---|1---0---0---0---|0---0---0---1---|
Bb :4---0---0---0---|0---4---1---0---|1---0---0---0---|0---0---0---1---|

                                                                       
C  :----------------|----------------|----------------|----------------|
G  :----------------|----------------|----------------|----------------|
Eb :----------------|----------------|----------------|----------------|
Bb :----------------|----------------|----------------|----------------|
F  :4---0---0---0---|0---4---1---0---|1---0---0---0---|0---0---0---1---|
Bb :4---0---0---0---|0---4---1---0---|1---0---0---0---|0---0---0---1---|

============================================================================

                                                            
C  :----------------|-------------------|-------------------|
G  :----------------|-------------------|-------------------|
Eb :----------------|-------------------|-------------------|
Bb :----------------|-------------------|-------------------|
F  :4---0---0---0---|-------------------|-------------------|
Bb :4---0---0---0---|12-0-0-0-12-13-0-0-|12-0-0-0-12-13-0-0-|

                                                            
C  :----------------|-------------------|-------------------|
G  :----------------|-------------------|-------------------|
Eb :----------------|-------------------|-------------------|
Bb :----------------|-------------------|-------------------|
F  :4---0---0---0---|-------------------|-------------------|
Bb :4---0---0---0---|12-0-0-0-12-13-0-0-|12-0-0-0-12-13-0-0-|

============================================================================

                                                                       
C  :----------------|----------------|----------------|----------------|
G  :----------------|----------------|----------------|----------------|
Eb :----------------|----------------|----------------|----------------|
Bb :----------------|----------------|----------------|----------------|
F  :1---0---0---1---|4---0---0---0---|0---4---1---0---|1---0---0---0---|
Bb :1---0---0---1---|4---0---0---0---|0---4---1---0---|1---0---0---0---|

                                                                       
C  :----------------|----------------|----------------|----------------|
G  :----------------|----------------|----------------|----------------|
Eb :----------------|----------------|----------------|----------------|
Bb :----------------|----------------|----------------|----------------|
F  :1-----------1---|4---------------|----4---1---0---|1---0---*-------|
Bb :1---*-------1---|4---*-----------|----4---1---0---|1---0-----------|

============================================================================

                                                                       
C  :----------------|----------------|----------------|----------------|
G  :----------------|----------------|----------------|----------------|
Eb :----------------|----------------|----------------|----------------|
Bb :----------------|----------------|----------------|----------------|
F  :0---0---0---1---|4---0---0---0---|0-0-0-0---0-0---|0-0-0-0---0-0---|
Bb :0---0---0---1---|4---0---0---0---|0-0-0-0---0-0--*|0-0-0-0---0-0--*|

                                                                       
C  :----------------|----------------|----------------|----------------|
G  :----------------|----------------|----------------|----------------|
Eb :----------------|----------------|----------------|----------------|
Bb :----------------|----------------|----------------|----------------|
F  :0-----------1---|4---------------|0-0-0-0---0-0---|0-0-0-0---0-0---|
Bb :0---*-------1---|4---*-----------|0-0-0-0---0-0--*|0-0-0-0---0-0--*|

============================================================================

                                                                       
C  :----------------|----------------|----------------|----------------|
G  :----------------|----------------|----------------|----------------|
Eb :----------------|----------------|----------------|----------------|
Bb :----------------|----------------|----------------|----------------|
F  :1---0---0---1---|4---0---0---0---|0---4---1---0---|1---0---0---0---|
Bb :1---0---0---1---|4---0---0---0---|0---4---1---0---|1---0---0---0---|

                                                                       
C  :----------------|----------------|----------------|----------------|
G  :----------------|----------------|----------------|----------------|
Eb :----------------|----------------|----------------|----------------|
Bb :----------------|----------------|----------------|----------------|
F  :1-----------1---|4---------------|----4---1---0---|1---0---*-------|
Bb :1---*-------1---|4---*-----------|----4---1---0---|1---0-----------|

============================================================================

                                                                       
C  :----------------|----------------|----------------|----------------|
G  :----------------|----------------|----------------|----------------|
Eb :----------------|----------------|----------------|----------------|
Bb :----------------|----------------|----------------|----------------|
F  :0---0---0---1---|4---0---0---0---|0-0-0-0---0-0---|0-0-0-0---0-0---|
Bb :0---0---0---1---|4---0---0---0---|0-0-0-0---0-0--*|0-0-0-0---0-0--*|

                                                                       
C  :----------------|----------------|----------------|----------------|
G  :----------------|----------------|----------------|----------------|
Eb :----------------|----------------|----------------|----------------|
Bb :----------------|----------------|----------------|----------------|
F  :0-----------1---|4---------------|0-0-0-0---0-0---|0-0-0-0---0-0---|
Bb :0---*-------1---|4---*-----------|0-0-0-0---0-0--*|0-0-0-0---0-0--*|

============================================================================

                                                             
C  :------------------|------------------|-------------------|
G  :------------------|------------------|----13-------------|
Eb :14-------14-------|----14-------14---|---------14--------|
Bb :15-------15-------|----15-------15---|--------------15---|
F  :12---0-0-12---0-0-|0-0-12---0-0-12---|0----*-------------|
Bb :-----0-0------0-0-|0-0------0-0------|0----*-------------|

                                                             
C  :------------------|------------------|----12-------------|
G  :------------------|------------------|---------13--------|
Eb :14-------14-------|----14-------14---|--------------14---|
Bb :15-------15-------|----15-------15---|-------------------|
F  :12---0-0-12---0-0-|0-0-12---0-0-12---|0----*-------------|
Bb :-----0-0------0-0-|0-0------0-0------|0----*-------------|

============================================================================

                                                              
C  :12------------------|------------------|------------------|
G  :-----13--------13---|------------------|------------------|
Eb :----------14--------|14-------14-------|----14-------14---|
Bb :--------------------|15-------15-------|----15-------15---|
F  :--------------------|12---0-0-12---0-0-|0-0-12---0-0-12---|
Bb :--------------------|-----0-0------0-0-|0-0------0-0------|

                                                              
C  :15------------------|------------------|------------------|
G  :-----17--------17---|------------------|------------------|
Eb :----------17--------|14-------14-------|----14-------14---|
Bb :--------------------|15-------15-------|----15-------15---|
F  :--------------------|12---0-0-12---0-0-|0-0-12---0-0-12---|
Bb :--------------------|-----0-0------0-0-|0-0------0-0------|

============================================================================

                                                               
C  :------------------|---------------------|------------------|
G  :------------------|13-13-13-13-13-------|------------------|
Eb :----14---14-------|14-14-14-14-14-------|14-------14-------|
Bb :----15---15-------|15-15-15-15-15---*---|15-------15-------|
F  :0---12---12---0---|---------------------|12---0-0-12---0-0-|
Bb :0-------------0---|---------------------|-----0-0------0-0-|

                                                               
C  :------------------|---------------------|------------------|
G  :------------------|17-17-17-17-17---*---|------------------|
Eb :----14---14-------|17-17-17-17-17-------|14-------14-------|
Bb :----15---15-------|---------------------|15-------15-------|
F  :0---12---12---0---|---------------------|12---0-0-12---0-0-|
Bb :0-------------0---|---------------------|-----0-0------0-0-|

============================================================================

                                                               
C  :------------------|-------------------|12------------------|
G  :------------------|----13-------------|-----13--------13---|
Eb :----14-------14---|---------14--------|----------14--------|
Bb :----15-------15---|--------------15---|--------------------|
F  :0-0-12---0-0-12---|0----*-------------|--------------------|
Bb :0-0------0-0------|0----*-------------|--------------------|

                                                               
C  :------------------|----12-------------|15------------------|
G  :------------------|---------13--------|-----17--------17---|
Eb :----14-------14---|--------------14---|----------17--------|
Bb :----15-------15---|-------------------|--------------------|
F  :0-0-12---0-0-12---|0----*-------------|--------------------|
Bb :0-0------0-0------|0----*-------------|--------------------|

============================================================================

                                                            
C  :------------------|------------------|------------------|
G  :------------------|------------------|------------------|
Eb :14-------14-------|----14-------14---|----14---14-------|
Bb :15-------15-------|----15-------15---|----15---15-------|
F  :12---0-0-12---0-0-|0-0-12---0-0-12---|0---12---12---0---|
Bb :-----0-0------0-0-|0-0------0-0------|0-------------0---|

                                                            
C  :------------------|------------------|------------------|
G  :------------------|------------------|------------------|
Eb :14-------14-------|----14-------14---|----14---14-------|
Bb :15-------15-------|----15-------15---|----15---15-------|
F  :12---0-0-12---0-0-|0-0-12---0-0-12---|0---12---12---0---|
Bb :-----0-0------0-0-|0-0------0-0------|0-------------0---|

============================================================================

                                                               
C  :---------------------|------------------|------------------|
G  :13-13-13-13-13-------|------------------|------------------|
Eb :14-14-14-14-14-------|14-------14-------|----14-------14---|
Bb :15-15-15-15-15---*---|15-------15-------|----15-------15---|
F  :---------------------|12---0-0-12---0-0-|0-0-12---0-0-12---|
Bb :---------------------|-----0-0------0-0-|0-0------0-0------|

                                                               
C  :---------------------|------------------|------------------|
G  :17-17-17-17-17---*---|------------------|------------------|
Eb :17-17-17-17-17-------|14-------14-------|----14-------14---|
Bb :---------------------|15-------15-------|----15-------15---|
F  :---------------------|12---0-0-12---0-0-|0-0-12---0-0-12---|
Bb :---------------------|-----0-0------0-0-|0-0------0-0------|

============================================================================

                                                               
C  :-------------------|12------------------|------------------|
G  :----13-------------|-----13--------13---|------------------|
Eb :---------14--------|----------14--------|14-------14-------|
Bb :--------------15---|--------------------|15-------15-------|
F  :0----*-------------|--------------------|12---0-0-12---0-0-|
Bb :0----*-------------|--------------------|-----0-0------0-0-|

                                                               
C  :----12-------------|15------------------|------------------|
G  :---------13--------|-----17--------17---|------------------|
Eb :--------------14---|----------17--------|14-------14-------|
Bb :-------------------|--------------------|15-------15-------|
F  :0----*-------------|--------------------|12---0-0-12---0-0-|
Bb :0----*-------------|--------------------|-----0-0------0-0-|

============================================================================

                                                               
C  :------------------|------------------|---------------------|
G  :------------------|------------------|13-13-13-13-13-------|
Eb :----14-------14---|----14---14-------|14-14-14-14-14-------|
Bb :----15-------15---|----15---15-------|15-15-15-15-15---*---|
F  :0-0-12---0-0-12---|0---12---12---0---|---------------------|
Bb :0-0------0-0------|0-------------0---|---------------------|

                                                               
C  :------------------|------------------|---------------------|
G  :------------------|------------------|17-17-17-17-17---*---|
Eb :----14-------14---|----14---14-------|17-17-17-17-17-------|
Bb :----15-------15---|----15---15-------|---------------------|
F  :0-0-12---0-0-12---|0---12---12---0---|---------------------|
Bb :0-0------0-0------|0-------------0---|---------------------|

============================================================================

                                                             
C  :------------------|------------------|-------------------|
G  :------------------|------------------|----13-------------|
Eb :14-------14-------|----14-------14---|---------14--------|
Bb :15-------15-------|----15-------15---|--------------15---|
F  :12---0-0-12---0-0-|0-0-12---0-0-12---|0----*-------------|
Bb :-----0-0------0-0-|0-0------0-0------|0----*-------------|

                                                             
C  :------------------|------------------|----12-------------|
G  :------------------|------------------|---------13--------|
Eb :14-------14-------|----14-------14---|--------------14---|
Bb :15-------15-------|----15-------15---|-------------------|
F  :12---0-0-12---0-0-|0-0-12---0-0-12---|0----*-------------|
Bb :-----0-0------0-0-|0-0------0-0------|0----*-------------|

============================================================================

                                                              
C  :12------------------|------------------|------------------|
G  :-----13--------13---|------------------|------------------|
Eb :----------14--------|14-------14-------|----14-------14---|
Bb :--------------------|15-------15-------|----15-------15---|
F  :--------------------|12---0-0-12---0-0-|0-0-12---0-0-12---|
Bb :--------------------|-----0-0------0-0-|0-0------0-0------|

                                                              
C  :15------------------|------------------|------------------|
G  :-----17--------17---|------------------|------------------|
Eb :----------17--------|14-------14-------|----14-------14---|
Bb :--------------------|15-------15-------|----15-------15---|
F  :--------------------|12---0-0-12---0-0-|0-0-12---0-0-12---|
Bb :--------------------|-----0-0------0-0-|0-0------0-0------|

============================================================================

                                            
C  :------------------|---------------------|
G  :------------------|13-13-13-13-13-------|
Eb :----14---14-------|14-14-14-14-14-------|
Bb :----15---15-------|15-15-15-15-15---*---|
F  :0---12---12---0---|---------------------|
Bb :0-------------0---|---------------------|

                                            
C  :------------------|---------------------|
G  :------------------|17-17-17-17-17---*---|
Eb :----14---14-------|17-17-17-17-17-------|
Bb :----15---15-------|---------------------|
F  :0---12---12---0---|---------------------|
Bb :0-------------0---|---------------------|
comments
print report bad tab
5 comments total. Showing first comments.
0 reply
synestershadows wrote on January 31 2010, 12:53 am

beginning is definitely wrong. guitars go higher than that. possibly one guitar does what is written but the other seems to be going a bit higher.

0 reply
biznatch985 wrote on February 10 2010, 12:52 am

A few notes in the beginning sound do sound off to me, as well as the last chord at the end of the first riff.
heres what i think it is, it sounds right when i play it over the song.

C :--------12--------|15---------------|------------------|
G :-------------13---|-----------------|------------------|
Eb :------------------|-----------------|14-------14-------|
Bb :------------------|-----------------|15-------15-------|
F :------------------|-----------------|12---0-0-12---0-0-|
Bb :------------------|-----------------|-----0-0------0-0-|

C :------------------|------15-----------|12--------------|
G :------------------|----------13-------|-----13-------13|
Eb :----14-------14---|---------------12--|----------14----|
Bb :----15-------15---|-------------------|----------------|
F :0-0-12---0-0-12---|0----*-------------|----------------|
Bb :0-0------0-0------|0----*-------------|----------------|

C :------------------|------------------|-----------------|
G :------------------|------------------|-----------------|
Eb :14-------14-------|----14-------14---|----14---14------|
Bb :15-------15-------|----15-------15---|----15---15------|
F :12---0-0-12---0-0-|0-0-12---0-0-12---|0---12---12---0--|
Bb :-----0-0------0-0-|0-0------0-0------|0-------------0--|

C :---------------------|
G :---------------------|
Eb :--9--9--9--9--9------|
Bb :--10-10-10-10-10--*--|
F :--8--8--8--8--8------|
Bb :---------------------|

0 reply
biznatch985 wrote on February 10 2010, 01:02 am

now that i think about it, i think the

chord is actually played as a full bar chord or w/e u wanna call it.. like

just a thought..

I want to post or [tab]
guest
You may want to rate the tab now too:
select rating
Please do not post tabs as comments. Select "correction" instead!