Oops, an error
Loading. Please wait.

Foundation Tab

ver1
ver1

Intro

Whole song

Interactive

More versions @911Tabs.com
3,394 views 3 this week
2 commentsread comments
1 2 3 4 5
excellent!
x 4
Autoscroll
+/-
esc
set tempo
stop
Contributor
Difficulty
Tuning
advanced
C G C F A D
Hey! There's an official Ultimate Guitar app which is ideal
for learning songs when you're away from computer. Get the app
WARNING: You are trying to view
                                    content from Ultimate-Guitar.com
                                    in an unauthorized application,
                                    which is prohibited.

                                    Please use an official Ultimate
                                    Guitar Tabs application for iPhone,
                                    iPad or Android to access legitimate
                                    chords, guitar, bass, and drum tabs
                                    from Ultimate-Guitar.com database.

                                    Type "ultimate guitar tabs" in Apple
                                    App Store's or Android Market's
                                    search to find the application.
For Today - Foundation
submitted by: witto112
Album: Immortal

Tuning : Drop C (C G C F A D)

Learned the song by ear

I recommend you listen to the song first

h=Hammer on
p=pull off
PM=palm muting
/=slide up
\ =slide down
b=bend

Lead Guitar
Intro X4
D|--------------------------------------------------------------------------|
A|-------10p7-9p7-10t7----10p7-9p7-10---h14p7h10h14p7h10h14p7h10h14p7h10h---|
F|---11p7-------------11p7--------------------------------------------------|
C|--------------------------------------------------------------------------|
G|--------------------------------------------------------------------------|
C|--------------------------------------------------------------------------|

D|-------------------------------------------------------------------------|
A|12p7h10h12p7h10h15p7h10h14-----------------------------------------------|
F|-------------------------------------------------------------------------|
C|-------------------------------------------------------------------------|
G|-------------------------------------------------------------------------|
C|-------------------------------------------------------------------------|

4th time
D|--------------------------------------------------------------------------|
A|-------10p7-9p7-10t7----10p7-9p7-10---h14p7h10h14p7h10h14p7h10h14p7h10h---|
F|---11p7-------------11p7--------------------------------------------------|
C|--------------------------------------------------------------------------|
G|--------------------------------------------------------------------------|
C|--------------------------------------------------------------------------|

D|-------------------------------------------------------------------------|
A|12p7h10h12p7h10h15p7h10h14-----------------------------------------------|
F|-----------------------------11/-3---------------------------------------|
C|------------------------------x/-x---------------------------------------|
G|------------------------------9/-1---------------------------------------|
C|-------------------------------------------------------------------------|

Breakdown X2 (Verse)
     PM PM   PM PM   PM PM    PM PM  PM  PM   PM PM  PM   PM  PM   PM PM
D|-------------------------------------------------------------------------|
A|-------------------------------------------------------------------------|
F|-------------------------------------------------------------------------|
C|-------------------------------------------------------------------------|
G|---0--000--0--00---0--0000--0--00--0---000--0--00--0000--0--0000--0--00--|
C|---0--000--0--00---0--0000--0--00--0---000--0--00--0000--0--0000--0--00--|

Plays over the Breakdon 3-4th time X2 (Verse)
D|-------------------------------------------------------------------------|
A|---9h10p9--7--6--------------9h10p9--7--6------------9-------------------|
F|---------------10h11p10--7--6------------10h11p10--6---------------------|
C|-------------------------------------------------------------------------|
G|-------------------------------------------------------------------------|
C|-------------------------------------------------------------------------|

Bridge
D|-------------------------------------------------------------------------|
A|-------------------------------------------------------------------------|
F|---11----7----18--18--18--18---16----------------------------------------|
C|---x-----x----x---x---x---x----x-----------------------------------------|
G|---9-----5----16--16--16--16---14----------------------------------------|
C|-------------------------------------------------------------------------|

Chorus X2
D|-------------------------------------------------------------------------|
A|-------------------------------------------------------------------------|
F|---11--11--11--11--11--11--11--11----14--14--14--14----13--13--13--13----|
C|---x---x---x---x---x---x---x---x-----x---x---x---x-----x---x---x---x-----|
G|---9---9---9---9---9---9---9---9-----12--12--12--12----11--11--11--11----|
C|-------------------------------------------------------------------------|

D|-------------------------------------------------------------------------|
A|-------------------------------------------------------------------------|
F|---14--14--14--14--14--14--14--14----9--9--9--9--9--9--9--9------11--11--|
C|---x---x---x---x---x---x---x---x-----x--x--x--x--x--x--x--x------x---x---|
G|---12--12--12--12--12--12--12--12----7--7--7--7--7--7--7--7------9---9---|
C|-------------------------------------------------------------------------|

D|-------------------------------------------------------------------------|
A|-------------------------------------------------------------------------|
F|---11--11--11--11--11--11----14--14--14--14----13--13--13--13----14--14--|
C|---x---x---x---x---x---x-----x---x---x---x-----x---x---x---x-----x---x---|
G|---9---9---9---9---9---9-----12--12--12--12----11--11--11--11----12--12--|
C|-------------------------------------------------------------------------|

D|-------------------------------------------------------------------------|
A|-------------------------------------------------------------------------|
F|---14--14--14--14--14--14----18--18--18--18---16--16--16--16-------------|
C|---x---x---x---x---x---x-----x---x---x---x----x---x---x---x--------------|
G|---12--12--12--12--12--12----16--16--16--16---14--14--14--16-------------|
C|-------------------------------------------------------------------------|

Chorus 2nd time
D|-------------------------------------------------------------------------|
A|-------------------------------------------------------------------------|
F|---11--11--11--11--11--11--11--11----14--14--14--14----13--13--13--13----|
C|---x---x---x---x---x---x---x---x-----x---x---x---x-----x---x---x---x-----|
G|---9---9---9---9---9---9---9---9-----12--12--12--12----11--11--11--11----|
C|-------------------------------------------------------------------------|

D|-------------------------------------------------------------------------|
A|-------------------------------------------------------------------------|
F|---14--14--14--14--14--14--14--14----9--9--9--9--9--9--9--9------11--11--|
C|---x---x---x---x---x---x---x---x-----x--x--x--x--x--x--x--x------x---x---|
G|---12--12--12--12--12--12--12--12----7--7--7--7--7--7--7--7------9---9---|
C|-------------------------------------------------------------------------|

D|-------------------------------------------------------------------------|
A|-------------------------------------------------------------------------|
F|---11--11--11--11--11--11----14--14--14--14----13--13--13--13----14--14--|
C|---x---x---x---x---x---x-----x---x---x---x-----x---x---x---x-----x---x---|
G|---9---9---9---9---9---9-----12--12--12--12----11--11--11--11----12--12--|
C|-------------------------------------------------------------------------|

D|--------------------------------------------------------------------------|
A|--------------------------------------------------------------------------|
F|---14--14--14--14--14--14----18--18--18--18---16--16--16--16----11/10/7---|
C|---x---x---x---x---x---x-----x---x---x---x----x---x---x---x------x/x/x----|
G|---12--12--12--12--12--12----16--16--16--16---14--14--14--16-----9/8/5----|
C|--------------------------------------------------------------------------|
              PM
D|-------------------------------------------------------------------------|
A|-------------------------------------------------------------------------|
F|---\ 10\11---------------------------------------------------------------|
C|---\ x\x-----------------------------------------------------------------|
G|---\ 8\9----00000--------------------------------------------------------|
C|------------00000--------------------------------------------------------|

Verse 1th part
                PM PM  PM PM                       PM PM  PM PM
D|-------------------------------------------------------------------------|
A|-------------------------------------------------------------------------|
F|-------------------------------------------------------------------------|
C|---4--6--7--------------------4--4----4--6--7----------------------------|
G|---4--6--7----4--44--4--44----4--4----4--6--7----4--44--4--44----4--4----|
C|---4--6--7----4--44--4--44----4--4----4--6--7----4--44--4--44----4--4----|

                PM PM  PM PM                       PM PM  PM PM
D|-------------------------------------------------------------------------|
A|-------------------------------------------------------------------------|
F|-------------------------------------------------------------------------|
C|---4--6--7--------------------4--4----4--6--7----------------------------|
G|---4--6--7----4--44--4--44----4--4----4--6--7----4--44--4--44----0000----|
C|---4--6--7----4--44--4--44----4--4----4--6--7----4--44--4--44----0000----|

Verse 2 2nd part 2X
D|------------------------------------------------------------------------|
A|------------------------------------------------------------------------|
F|---14--14--14----11--11--11----14--14----13--13--13----10--10--10--10---|
C|---x---x---x-----x---x---x-----x---x-----x---x---x-----x---x---x---x----|
G|---12--12--12----9---9---9-----12--12----11--11--11----9---9---9---9----|
C|------------------------------------------------------------------------|

D|------------------------------------------------------------------------|
A|------------------------------------------------------------------------|
F|---14--14--14----11--11--1----7--7----6--6--6--6--6--6--6--6------------|
C|---x---x---x-----x---x---x----x--x----x--x--x--x--x--x--x--x------------|
G|---12--12--12----9---9---9----5--5----4--4--4--4--4--4--4--4------------|
C|------------------------------------------------------------------------|

Verse 2 2nd part (2end time)
D|------------------------------------------------------------------------|
A|------------------------------------------------------------------------|
F|---14--14--14----11--11--11----14--14----13--13--13----10--10--10--10---|
C|---x---x---x-----x---x---x-----x---x-----x---x---x-----x---x---x---x----|
G|---12--12--12----9---9---9-----12--12----11--11--11----8---8---8---8----|
C|------------------------------------------------------------------------|

D|------------------------------------------------------------------------|
A|------------------------------------------------------------------------|
F|---14--14--14----11--11--1----7--7----6--6--6--6--6--6--6--6------------|
C|---x---x---x-----x---x---x----x--x----x--x--x--x--x--x--x--x----0-------|
G|---12--12--12----9---9---9----5--5----4--4--4--4--4--4--4--4----0-------|
C|----------------------------------------------------------------0-------|

Chorus 2X
D|-------------------------------------------------------------------------|
A|-------------------------------------------------------------------------|
F|---11--11--11--11--11--11--11--11----14--14--14--14----13--13--13--13----|
C|---x---x---x---x---x---x---x---x-----x---x---x---x-----x---x---x---x-----|
G|---9---9---9---9---9---9---9---9-----12--12--12--12----11--11--11--11----|
C|-------------------------------------------------------------------------|

D|-------------------------------------------------------------------------|
A|-------------------------------------------------------------------------|
F|---14--14--14--14--14--14--14--14----9--9--9--9--9--9--9--9------11--11--|
C|---x---x---x---x---x---x---x---x-----x--x--x--x--x--x--x--x------x---x---|
G|---12--12--12--12--12--12--12--12----7--7--7--7--7--7--7--7------9---9---|
C|-------------------------------------------------------------------------|

D|-------------------------------------------------------------------------|
A|-------------------------------------------------------------------------|
F|---11--11--11--11--11--11----14--14--14--14----13--13--13--13----14--14--|
C|---x---x---x---x---x---x-----x---x---x---x-----x---x---x---x-----x---x---|
G|---9---9---9---9---9---9-----12--12--12--12----11--11--11--11----12--12--|
C|-------------------------------------------------------------------------|

D|-------------------------------------------------------------------------|
A|-------------------------------------------------------------------------|
F|---14--14--14--14--14--14----18--18--18--18---16--16--16--16-------------|
C|---x---x---x---x---x---x-----x---x---x---x----x---x---x---x--------------|
G|---12--12--12--12--12--12----16--16--16--16---14--14--14--16-------------|
C|-------------------------------------------------------------------------|

Chorus 2nd time
D|-------------------------------------------------------------------------|
A|-------------------------------------------------------------------------|
F|---11--11--11--11--11--11--11--11----14--14--14--14----13--13--13--13----|
C|---x---x---x---x---x---x---x---x-----x---x---x---x-----x---x---x---x-----|
G|---9---9---9---9---9---9---9---9-----12--12--12--12----11--11--11--11----|
C|-------------------------------------------------------------------------|

D|-------------------------------------------------------------------------|
A|-------------------------------------------------------------------------|
F|---14--14--14--14--14--14--14--14----9--9--9--9--9--9--9--9------11--11--|
C|---x---x---x---x---x---x---x---x-----x--x--x--x--x--x--x--x------x---x---|
G|---12--12--12--12--12--12--12--12----7--7--7--7--7--7--7--7------9---9---|
C|-------------------------------------------------------------------------|

D|-------------------------------------------------------------------------|
A|-------------------------------------------------------------------------|
F|---11--11--11--11--11--11----14--14--14--14----13--13--13--13----14--14--|
C|---x---x---x---x---x---x-----x---x---x---x-----x---x---x---x-----x---x---|
G|---9---9---9---9---9---9-----12--12--12--12----11--11--11--11----12--12--|
C|-------------------------------------------------------------------------|

D|-------------------------------------------------------------------------|
A|-------------------------------------------------------------------------|
F|---14--14--14--14--14--14----18--18--18--18---16--16--16--16-------------|
C|---x---x---x---x---x---x-----x---x---x---x----x---x---x---x-----0--------|
G|---12--12--12--12--12--12----16--16--16--16---14--14--14--16----0--------|
C|----------------------------------------------------------------0--------|

After Chorus 4X
D|--------------------------------------------------------------------------|
A|--------------------------------------------------------------------------|
F|---14--14--14----11--11--11----14--14----13--13--13----10--10--10--10--10-|
C|---x---x---x-----x---x---x-----x---x-----x---x---x-----x---x---x---x---x--|
G|---12--12--12----9---9---9-----12--12----11--11--11----8---8---8---8---8--|
C|--------------------------------------------------------------------------|

D|--------------------------------------------------------------------------|
A|--------------------------------------------------------------------------|
F|---10--10--10----14--14--14----11--11--11----19--19----18--18--18--18--18-|
C|---x---x---x-----x---x---x-----x---x---x-----x---x-----x---x---x---x---x--|
G|---8---8---8-----12--12--12----9---9---9-----17--17----16--16--16--16--16-|
C|--------------------------------------------------------------------------|

D|-------------------------------------------------------------------------|
A|-------------------------------------------------------------------------|
F|---18--18--18------------------------------------------------------------|
C|---x---x---x-------------------------------------------------------------|
G|---16--16--16------------------------------------------------------------|
C|-------------------------------------------------------------------------|

Outro 4X
     PM   PM      PM  PM       PM PM PM PM PM PM PM
D|------------------------------------------------------------------------|
A|------------------------------------------------------------------------|
F|------------------------------------------------------------------------|
C|------------------------------------------------------------------------|
G|----0---000000---0---0000-----0--0--0--0--0--0--00----------------------|
C|---b0--b000000--b0--b0000----b0-b0-b0-b0-b0-b0-b00----------------------|

Outro 4th time
        PM
D|------------------------------------------------------------------------|
A|------------------------------------------------------------------------|
F|------------------------------------------------------------------------|
C|------------------------------------------------------------------------|
G|-----000----------------------------------------------------------------|
C|----b000----------------------------------------------------------------|
comments
print report bad tab
2 comments total.
0 reply
magn1591 wrote on November 11 2012, 08:18 am

excellent!!!

Thanks mate!

0 reply
witto112 wrote on January 24 2013, 04:21 am

Sorry for some small mistakes, I didn't noticed them before I posted the tabs

I want to post or [tab]
guest
You may want to rate the tab now too:
select rating
Please do not post tabs as comments. Select "correction" instead!