Oops, an error
Loading. Please wait.

Off The Edge Tab

566 views 1 this week
no commentswrite comment
1 2 3 4 5
please rate
Autoscroll
+/-
esc
set tempo
stop
Contributor
WARNING: You are trying to view
                                    content from Ultimate-Guitar.com
                                    in an unauthorized application,
                                    which is prohibited.

                                    Please use an official Ultimate
                                    Guitar Tabs application for iPhone,
                                    iPad or Android to access legitimate
                                    chords, guitar, bass, and drum tabs
                                    from Ultimate-Guitar.com database.

                                    Type "ultimate guitar tabs" in Apple
                                    App Store's or Android Market's
                                    search to find the application.
Band- Forbidden
Song- Off The Edge

Key
= after note = vibrato
^ after note = heavy vibrato
\ = slide down
/ = slide up
+ = tap
h = hammer
p = pull
n = natural harmonic
s = pinching harmonic (squeal)
* = tremolo pick
t = trill
b = bend
|-3-| = triplet

n number above the tab = play the first part then the first finishing part
			 play the first part a second time and then play the second finishing part
			 etc.

Intro

E ------------------------------------------------------------------|
B ------------------------------------------------------------------|
G -9---8-----------------------9---8-9\-----------------------9---8-|
D -9-9-8-2---------------------9-9-8-9\-----------------------9-9-8-|
A -7-9-6-2---------------------7-9-6-7\--------x-x------------7-9-6-|
E ---7---0-----------------------7------------------------------7---|

Riff 1

E -------------------------|
B -------------------------|
G -9-----------------8---8-|
D -9----/8-----2-----9-9-8-|
A -7----/8-----2-----7-9-6-|
E ----0-/6-0-0-0-0-0---7---|

Riff 1A

E -------------------------------------|
B -------------------------------------|
G -------------9---8-9-----------9---8-|
D -2---8---2---9-9-8-9---8---2---9-9-8-|
A -2---8---2---7-9-6-7---8---2---7-9-6-|
E -0---6---0-----7-------6---0-----7---|

Fill 1

E -------------------------|
B -------------------------|
G -------------------------|
D -----------------5-4-2-5-|
A -------------------------|
E -3-2-0-2-3-2-0-2---------|

Fill 1A

E -------------------------|
B -------------------------|
G -------------------------|
D -------------------------|
A -------------------------|
E -3-2-0-2-3-2-0-2-3-2-0-3-|

Riff 2

E --------------------------------------------------------------------------------|
B --------------------------------------------------------------------------------|
G --------------------------------------------------------------------------------|
D --------------------------------------------------------------------4s----------|
A -4---2---3---4---1---2---3---4----------4---2---3---4---1---2---3---------------|
E ---2---2---2---2---2---2---2----3-2-0-3---2---2---2---2---2---2---2-----3-2-0-3-|

Riff 2A

E ----------------------------------------------------------------------------------------------------|
B ----------------------------------------------------------------------------------------------------|
G -----------------------------------------------------------------------------------6-----5----------|
D --------------------------------------------------------------------4s----------4--6--5--5----------|
A -4---2---3---4---1---2---3---4----------4---2---3---4---1---2---3---------------4--4--5--3----------|
E ---2---2---2---2---2---2---2----3-2-0-3---2---2---2---2---2---2---2-----3-2-0-3-2-----3-----3-2-0-3-|

Riff 3

E ---------------------------------------------------------------------------------------------------------------------|
B ---------------------------------------------------------------------------------------------------------------------|
G ------------------------------7---------------------------------------------------------7----------------------------|
D -6------6------6--------------7------6------6--------------6------6------6--------------7------6------6--------------|
A -6------6------6--------------5------6------6--------------6------6------6--------------5------6------6--------------|
E -4--4-4-4--4-4-4--4-4-5-4-2-4----4-4-4--4-4-4--4-4-5-4-2-5-4--4-4-4--4-4-4--4-4-5-4-2-5----4-4-4--4-4-4--4-4-5-4-2-4-|

E ---------------------|
B ---------------------|
G ----8-----7----------|
D -6--8--7--7----------|
A -6--6--7--5----------|
E -4-----5-----3-2-0-3-|

Riff 3A

E ---------------------------------------------------------------------------------------------------------------------|
B ---------------------------------------------------------------------------------------------------------------------|
G ------------------------------5---------------------------------------------------------5----------------------------|
D -4------4------4--------------5------4------4--------------4------4------4--------------5------4------4--------------|
A -4------4------4--------------3------4------4--------------4------4------4--------------3------4------4--------------|
E -2--2-2-2--2-2-2--2-2-3-2-0-3----2-2-2--2-2-2--2-2-3-2-0-3-2--2-2-2--2-2-2--2-2-3-2-0-2----2-2-2--2-2-2--2-2-3-2-0-2-|

E ---------------------|
B ---------------------|
G ----6-----5----------|
D -4--6--5--5----------|
A -4--4--5--3----------|
E -2-----3-----3-2-0-3-|

Riff 4

E --------------------------------------------------------------------------------------------------------------------------|
B --------------------------------------------------------------------------------------------------------------------------|
G --------------------------------------------------------------------------------------------------------------------------|
D -9---9---10---10---7---7---8---8---5---5---6---6---3---3-----------------------------------------------------4------------|
A ---7---7----6----6---5---5---4---4---3---3---2---2---1---1---------7*----6*----5*----4*----3*----2*----1*----4------------|
E -----------------------------------------------------------3-2-3-2-------------------------------------------2----3-2-0-3-|

Riff 4A

E ----------------------------------------------------------------------------------------------------------------------|
B ----------------------------------------------------------------------------------------------------------------------|
G ----------------------------------------------------------------------------------------------------------------------|
D -9---9---10---10---7---7---8---8---5---5---6---6---3---3-----------9--9--10--10--7--7--8--8--5--5--6--6--4------------|
A ---7---7----6----6---5---5---4---4---3---3---2---2---1---1-----------------------------------------------4------------|
E -----------------------------------------------------------3-2-3-2---------------------------------------2----3-2-0-3-|

Riff 5

E ------------------------------------------------------------------------------------------------------------------------|
B ------------------------------------------------------------------------------------------------------------------------|
G ----6--7----------------------6--7----------------------6--7----------------------6--7----------------------------------|
D -4--6--7--6--6--6----------4--6--7--6--7--7----------4--6--7--6--6--6----------4--6--7--6--7----------------------------|
A -4--4--5--6--6--6----------4--4--5--6--7--7----------4--4--5--6--6--6----------4--4--5--6--7----------------------------|
E -2--------4--4--4--3-2-0-3-2--------4--5--5--3-2-0-3-2--------4--4--4--3-2-0-3-2--------4--5----3-2-0-0-3-2-0-0-3-2-0-3-|

Riff 5A

E --------------------------------------------------------------------------------------------------------------------------|
B --------------------------------------------------------------------------------------------------------------------------|
G ----6--7----------------------6--7----------------------6--7----------------------6--7------------------------------------|
D -4--6--7--6--6--6----------4--6--7--6--7--7----------4--6--7--6--6--6----------4--6--7--6--7--------------------3-2-0-3-4-|
A -4--4--5--6--6--6----------4--4--5--6--7--7----------4--4--5--6--6--6----------4--4--5--6--7----------------------------4-|
E -2--------4--4--4--3-2-0-3-2--------4--5--5--3-2-0-3-2--------4--4--4--3-2-0-3-2--------4--5----3-2-0-0-3-2-0-0---------2-|

Riff 6

E -----------------------------------------------------------------------------------------------|
B -----------------------------------------------------------------------------------------------|
G -----------------------------------------------------------------------------------------------|
D ---------2-------3-------4---------------2-------3---------------------2-------3-------4-------|
A -1-------2-------3-------4-------1-------2-------3-------s4====1-------2-------3-------4-------|
E ---2-2-2---2-2-2---2-2-2---2-2-2---2-2-2---2-2-2---2-2-2---------2-2-2---2-2-2---2-2-2---2-2-2-|

E --------------------------------|
B --------------------------------|
G --------------------------------|
D ---------2-------3-------s4==---|
A -1-------2-------3--------------|
E ---2-2-2---2-2-2---2-2-2--------|

Riff 6A

E -----------------------------------------------------------------------------------------------|
B -----------------------------------------------------------------------------------------------|
G -----------------------------------------------------------------------------------------------|
D ---------4-------5-------6---------------4-------5---------------------4-------5-------6-------|
A -3-------4-------5-------6-------3-------4-------5-------s6====3-------4-------5-------6-------|
E ---4-4-4---4-4-4---4-4-4---4-4-4---4-4-4---4-4-4---4-4-4---------4-4-4---4-4-4---4-4-4---4-4-4-|

E --------------------------------|
B --------------------------------|
G --------------------------------|
D ---------4-------5-------s6==---|
A -3-------4-------5--------------|
E ---4-4-4---4-4-4---4-4-4--------|

Riff 7

E ---------------------------------------------------------|
B ---------------------------------------------------------|
G --------4---------------------------4--------------------|
D -2------4------3------3---3--2------4------3------3---3--|
A -2------2--2-2-3--3-3-3-3-3--2------2--2-2-3--3-3-3-3-3--|
E -0--0-0----------------------0--0-0----------------------|

Riff 7A

E ---------------------------------------------------------|
B ---------------------------------------------------------|
G --------8---------------------------8--------------------|
D -6------8------7------7---7--6------8------7------7---7--|
A -6------6--6-6-7--7-7-7-7-7--6------6--6-6-7--7-7-7-7-7--|
E -4--4-4----------------------4--4-4----------------------|

Riff 8

E ---------------------------------------------------------------------------------------------------------------------|
B ---------------------------------------------------------------------------------------------------------------------|
G ---------------------------------------------------------------------------------------------------------------------|
D -9------9------9--9----------10------10------10--10----------7------7------7--7----------8------8------8--8----------|
A -7------7------7--7----------6 ------6 ------6 --6 ----------5------5------5--5----------4------4------4--4----------
E ----0-0----0-0-------3-2-0-0-----0-0-----0-0---------3-2-0-0----0-0----0-0-------3-2-0-0----0-0----0-0-------3-2-0-0-

E -----------------------------------------------------------------------------------------|
B -----------------------------------------------------------------------------------------|
G -----------------------------------------------------------------------------------------|
D -5------5------5--5----------6------6------6--6----------3------3------3---3--3----------|
A -3------3------3--3----------2------2------2--2----------1------1------1---1--1----------|
E ----0-0----0-0-------3-2-0-0----0-0----0-0-------3-2-0-0----0-0----0-0---0-------3-2-0-0-|

E ----------------------------------------------------|
B ----------------------------------------------------|
G ----------------------------------------------------|
D -9--9--10--10--7--7--8--8--5--5--6--6--4------------|
A -7--7--6 --6 --5--5--4--4--3--3--2--2--4------------|
E ---------------------------------------2----3-2-0-3-|

Riff 8A

E --------------------------------------------------------------------------------------------------------|
B --------------------------------------------------------------------------------------------------------|
G --------------------------------------------------------------------------------------------------------|
D -9----------------10----------------7----------------8----------------5----------------6----------------|
A -7----------------6 ----------------5----------------4----------------3----------------2----------------|
E --------------------------------------------------------------------------------------------------------|

E ---------------------------------------------------------------------|
B ---------------------------------------------------------------------|
G ---------------------------------------------------------------------|
D -3----------------9--9--10--10--7--7--8--8--5--5--6--6--4------------|
A -1----------------7--7--6 --6 --5--5--4--4--3--3--2--2--4------------|
E --------------------------------------------------------2----3-2-0-3-|

Order

Intro x 1
Riff 1 x 4
Riff 1A x 2
Fill 1 x 1
Riff 2 x 1
Riff 2A x 1
Riff 3 x 1
Riff 3A x 1
Riff 4/4A x 1
Riff 5 x 1
Riff 2 x 1
Riff 2A x 1
Riff 3 x 1
Riff 3A x 1
Riff 4/4A x 1
Riff 5 x 1
Solo over Riff 6 x 2
Solo over Riff 6A x 2
Solo over Riff 6 x 2
Solo over Riff 6A x 2
Solo over Riff 7 x 2
Solo over Riff 7A x 2
Riff 6 x 1
Riff 6A x 1
Fill 2 x 1
Riff 8/8A x 1
Riff 5A x 1
comments
We did not receive enough feedback on this tab! Please rate:
1 2 3 4 5
I want to post or [tab]
guest
You may want to rate the tab now too:
select rating
Please do not post tabs as comments. Select "correction" instead!