Oops, an error
Loading. Please wait.

Bridges Streetlights Tab

43 views 1 this week
no commentswrite comment
1 2 3 4 5
please rate
add to favorites launch autoscroll
font size
0
reset
Autoscroll
+/-
esc
set tempo
stop
Contributor
Difficulty
Tuning
intermediate
D G C F A D
WARNING: You are trying to view
                                    content from Ultimate-Guitar.com
                                    in an unauthorized application,
                                    which is prohibited.

                                    Please use an official Ultimate
                                    Guitar Tabs application for iPhone,
                                    iPad or Android to access legitimate
                                    chords, guitar, bass, and drum tabs
                                    from Ultimate-Guitar.com database.

                                    Type "ultimate guitar tabs" in Apple
                                    App Store's or Android Market's
                                    search to find the application.
Tabbed By: Sean Wallner
Band: Four Minute Mile
Album: Bridges/Streetlights
Label: Better Days Records
Tuning: D Standard (DGCFAD)



---------------------------------------Sunburnt--------------------------------------------


Intro:                                  X1
d|---------------------------------------|
a|---------------------------------------|
f|-6-666-6-6-6-6-666-6-6-6-4-444-4-4-4-6-|
c|-4-444-4-4-4-4-444-4-4-4-4-444-4-4-4-3-|
g|-6-666-6-6-6-6-666-6-6-6-2-222-2-2-2-4-|
D|---------------------------------------|
     ***         ***         ***        X1
d|---------------------------------------|
a|---------------------------------------|
f|-------------------------------------6-|
c|-------------------------------------3-|
g|-------------------------------------4-|
D|---------------------------------------|




Pre-Verse:             X1                                    X2
d|----------------------|-------------------------------------|
a|----------------------|-------------------------------------|
f|-6----4----6--3--4--6-|-4-3-------4-3-------6-4-3-----3-4-6-|
c|-4----4----4--3--4--3-|-----6-4-4-----6-4-4-------4-4-------|
g|-6----2----6--1--2--4-|-------------------------------------|
D|----------------------|-------------------------------------|
                       X2
d|----------------------|
a|----------------------|
f|-6----4----6--3--4--6-|
c|-4----4----4--3--4--3-|
g|-6----2----6--1--2--4-|
D|----------------------|




Verse Part 1:                              X2
d|------------------------------------------|
a|------------------------------------------|
f|---6~~~~-6h4-6h4-6h4---4~~~~-3h4p3--------|
c|---4~~~~----4~~~4~~~---4~~~~------4/6\4/6-|
g|-666~~~~~~~~~~~~~~~~-222~~~~--------------|
D|------------------------------------------|
   **                  **                  X2
d|------------------------------------------|
a|------------------------------------------|
f|---6~~~~~~~~~~~~~~~~---4~~~~~~~~~~~~~~~~~-|
c|---4~~~~~~~~~~~~~~~~---4~~~~~~~~~~~~~~~~~-|
g|-666~~~~~~~~~~~~~~~~-222~~~~~~~~~~~~~~~~~-|
D|------------------------------------------|
   **                  ** 



Verse Part 2:                       X2
d|-----------------------------------|
a|-----------------------------------|
f|---6---6---6--6-6---4---4---4--4-4-|
c|---4---4---4--4-4---4---4---4--4-4-|
g|-6666666666666666-2222222222222222-|
D|-----------------------------------|
   ** *** *** ** *  ** *** *** ** * X2
d|-----------------------------------|
a|-----------------------------------|
f|---6---6---6--6-6---4---4---4--4-4-|
c|---4---4---4--4-4---4---4---4--4-4-|
g|-6666666666666666-2222222222222222-|
D|-----------------------------------|
   ** *** *** ** *  ** *** *** ** * 



Pre-Chorus:          X1
d|--------------------|
a|--------------------|
f|--------------------|
c|-6~~~~-6/8/9~999999-|
g|-6~~~~-6/8/9~999999-|
D|-4~~~~-4/6/7~777777-|
                     X1
d|--------------------|
a|--------------------|
f|--------------------|
c|-6~~~~-6/8/9~999999-|
g|-6~~~~-6/8/9~999999-|
D|-4~~~~-4/6/7~777777-|




Chorus:       X2
d|-------------|
a|-------------|
f|------6----4-|
c|-4----3----4-|
g|-4----4----2-|
D|-2-----------|
              X3
d|-------------|
a|-------------|
f|-11---11---4-|
c|-11---11---4-|
g|-9----8----2-|
D|-------------|

                                                                                       X1
d|-2-1-------2-1-------2-1---------1-----2h1--2-1------2-1-------2-1-----------2h4/764~-|
a|-----2/4\2-----2/4\2-----2/4\2-2---222---------2/4\2----2/4\2-----2/4\2-222h4---------|
f|--------------------------------------------------------------------------------------|
c|--------------------------------------------------------------------------------------|
g|--------------------------------------------------------------------------------------|
D|--------------------------------------------------------------------------------------|
              X1
d|-------------|
a|-------------|
f|-11---11---4-|
c|-11---11---4-|
g|-9----8----2-|
D|-------------|




Post-Chorus:      X1
d|-----------------|
a|-----------------|
f|-4~~~~-6~~~~-----|
c|-4~~~~-6~~~~-----|
g|-2~~~~-4~~~~-----|
D|------------\\\\-|
                    X1
d|-2~~~~-4~~~~-6~~~~-|
a|-------------------|
f|-------------------|
c|-------------------|
g|-------------------|
D|-------------------|




2nd Verse:             X1                                              X2
d|----------------------|-----------------------------------------------|
a|----------------------|-6h7p6----6h7p6------6--6h7p6----6h7p6------7--|
f|-6----4----6--3--4--6-|------6/8------6/8--6-6------6/8------6/8--6-6-|
c|-4----4----4--3--4--3-|-------------------8----------------------9----|
g|-6----2----6--1--2--4-|-----------------------------------------------|
D|----------------------|-----------------------------------------------|
                       X1                   ****                   ****                   X2
d|----------------------|------------------------------------------------------------------|
a|----------------------|------------------------------------------------------------------|
f|-6----4----6--3--4--6-|-66-666-666-666-644-444-444-444-466-666-633-333-344-444-466666666-|
c|-4----4----4--3--4--3-|-44-444-444-444-444-444-444-444-444-444-433-333-344-444-433333333-|
g|-6----2----6--1--2--4-|-66-666-666-666-622-222-222-222-266-666-611-111-122-222-244444444-|
D|----------------------|------------------------------------------------------------------|




Pre-Chorus 2:                 X1
d|-222~~22222222-2222222222222-|
a|-222~~22222222-2222222222222-|
f|-444~~44444444-4444444444444-|
c|-444~~44444444-4444444444444-|
g|-222~~22222222-2222222222222-|
D|-----------------------------|
   **             ** ** ** ** X1
d|-----------------------------|
a|-----------------------------|
f|-444~~~~~~~~~~-4444444444444-|
c|-444~~~~~~~~~~-4444444444444-|
g|-222~~~~~~~~~~-2222222222222-|
D|-----------------------------|
   **             ** ** ** **



Chorus:       X2
d|-------------|
a|-------------|
f|------6----4-|
c|-4----3----4-|
g|-4----4----2-|
D|-2-----------|
              X3
d|-------------|
a|-------------|
f|-11---11---4-|
c|-11---11---4-|
g|-9----8----2-|
D|-------------|

                                                                                        X1
d|-2-1-------2-1-------2-1---------1-----2h1--2-1-------2-1-------2-1-----------2h4/764~-|
a|-----2/4\2-----2/4\2-----2/4\2-2---222---------2/4\2-----2/4\2-----2/4\2-222h4---------|
f|---------------------------------------------------------------------------------------|
c|---------------------------------------------------------------------------------------|
g|---------------------------------------------------------------------------------------|
D|---------------------------------------------------------------------------------------|
              X1
d|-------------|
a|-------------|
f|-11---11---4-|
c|-11---11---4-|
g|-9----8----2-|
D|-------------|




Post-Chorus:     X1
d|----------------|
a|----------------|
f|-3~~6~~7~~6~~~~-|
c|-4~~3~~4~~4~~~~-|
g|-2~~4~~5~~6~~~~-|
D|----------------|
                 X1
d|-2~/4~\1~/6~~~~-|
a|----------------|
f|----------------|
c|----------------|
g|----------------|
D|----------------|




Bridge:                                               X1
d|-----------------------------------------------------|
a|-----------------------------------------------------|
f|-6~~~~~~~~--------6~~~~------3~~~~---3~~~~~~~~~3~~~3-|
c|----4~~~~~-----4~~~~~~~---4~~~~~~~------4~~~~4~~~4~4-|
g|-------2~~4/6~~~~~~~~~~4~~~~~~~~~~1~~~~~~~~2~~~~~~~2-|
D|-----------------------------------------------------|
                                                      X1
d|-----------------------------------------------------|
a|-----------------------------------------------------|
f|---------------------------------------------------3-|
c|---------------------------------------------------4-|
g|---------------------------------------------------2-|
D|-----------------------------------------------------|




Outro:                                                                        X1
d|-----------------------------------------------------------------------------|
a|-----------------------------------------------------------------------------|
f|---6~~~~~~~~3h4p3-------3~~~~~----------6~~~~~~~~3h4p3-------3~~~~~~~~3~~~~~-|
c|------4~~~~~-----4/6-------4~~4/66/8-------4~~~~~-----4/6-------4~~~~~~~~4~~-|
g|-6~~~~~~~6~~---------2~~~~~~~~--------6~~~~~~~6~~---------1~~~~~~~~2~~~~~~~~-|
D|-----------------------------------------------------------------------------|
                                                                            X1
d|---------------------------------------------------------------------------|
a|---------------------------------------------------------------------------|
f|-88888888-11111-6666-4444444444444444-88888888-11111-6666-3333333344444444-|
c|-88888888-11111-6666-4444444444444444-88888888-11111-6666-3333333344444444-|
g|-66666666-9999--4444-2222222222222222-66666666-9999--4444-1111111122222222-|
D|---------------------------------------------------------------------------|

                                                                              X1
d|-----------------------------------------------------------------------------|
a|-----------------------------------------------------------------------------|
f|---6~~~~~~~~3h4p3-------3~~~~~----------6~~~~~~~~3h4p3----3~~~~~~~~~~~~~~~~~-|
c|------4~~~~~-----4/6-------4~~4/66/8-------4~~~~~-----4/6-4~~~~~~~~~~~~~~~~~-|
g|-6~~~~~~~6~~---------2~~~~~~~~--------6~~~~~~~6~~---------2~~~~~~~~~~~~~~~~~-|
D|-----------------------------------------------------------------------------|
                                                                              X1
d|-----------------------------------------------------------------------------|
a|-----------------------------------------------------------------------------|
f|-88888888-11111-6666-4444444444444444-88888888-11111-6666-4~~~~~~~~~~~~~~~~~-|
c|-88888888-11111-6666-4444444444444444-88888888-11111-6666-4~~~~~~~~~~~~~~~~~-|
g|-66666666-9999--4444-2222222222222222-66666666-9999--4444-2~~~~~~~~~~~~~~~~~-|
D|-----------------------------------------------------------------------------|





----------------------------------------Camellia--------------------------------------------


Intro:                                                                    X2
d|-------------------------------------------------------------------------|
a|-0-00-000-0-00-000-0-00-000-0-00-000-0-00-000-0-00-000-0-00-000-0-00-000-|
f|-8-88-888-1-11-111-4-44-444-4-44-444-1-11-111-2-22-222-1-11-111-2-22-222-|
c|-9-99-999-2-22-222-6-66-666-4-44-444-2-22-222-2-22-222-2-22-222-2-22-222-|
g|-7-77-777-0-00-000-4-44-444-2-22-222-0-00-000-0-00-000-0-00-000-0-00-000-|
D|-------------------------------------------------------------------------|
                                                                          X2
d|-------------------------------------------------------------------------|
a|-------------------------------------------------------------------------|
f|-------------------------------------------------------------------------|
c|-------------------------------------------------------------------------|
g|-------------------------------------------------------------------------|
D|-------------------------------------------------------------------------|




Post-Intro:                              X1
d|----------------------------------------|
a|----------------------------------------|
f|----------------------------------------|
c|-2~~~~~~~~~~~~~~~~~~2~~~~~~~~~~~~~~~~~~-|
g|-2~~~~~~~~~~~~~~~~~~2~~~~~~~~~~~~~~~~~~-|
D|-0~~~~~~~~~~~~~~~~~~0~~~~~~~~~~~~~~~~~~-|
                                         X1
d|----------------------------------------|
a|----------------------------------------|
f|----------------------------------------|
c|-2~~~~~~~~~~~~~~~~~~2~~~~~~~~~~~~~~~~~~-|
g|-2~~~~~~~~~~~~~~~~~~2~~~~~~~~~~~~~~~~~~-|
D|-0~~~~~~~~~~~~~~~~~~0~~~~~~~~~~~~~~{{{{-|
                      



Pre-Verse:                                                                      X1
d|-------------------------------------------------------------------------------|
a|-00-0-0-0-00-0-0-0-00-0-0-0-00-0-0-0-0-000-0-0-0-0-000-0-0-0-00-0-0-0-00-0-0-0-|
f|-88-8-8-8-88-8-8-8-44-4-4-4-44-4-4-4-1-111-1-1-1-1-111-1-1-1-44-4-4-4-44-4-4-4-|
c|-99-9-9-9-99-9-9-9-66-6-6-6-44-4-4-4-2-222-2-2-2-2-222-2-2-2-66-6-6-6-44-4-4-4-|
g|-77-7-7-7-77-7-7-7-44-4-4-4-22-2-2-2-0-000-0-0-0-0-000-0-0-0-44-4-4-4-22-2-2-2-|
D|-------------------------------------------------------------------------------|
                                         ***         ***                        X1
d|---------------------------------------------5~4~-----5~4~----7~~5~~4~~4h5~4~--|
a|-4h5~~5~5~5~4h5~~7~7~7~4h5~~5~5~5~4h5~~7~7~7~---7~5~5~---7~5~5~-------------7~-|
f|-------------------------------------------------------------------------------|
c|-------------------------------------------------------------------------------|
g|-------------------------------------------------------------------------------|
D|-------------------------------------------------------------------------------|

                                                                                     X1
d|---------------------------------------------------0~~------------------------------|
a|-00-0-0-0-00-0-0-0-00-0-0-0-00-0-0-0-00-0-00-0-00-0-0~00-0-0-0-00-0-0-0-0~~~0~~~----|
f|-88-8-8-8-88-8-8-8-44-4-4-4-44-4-6-4-11-1-11-1-11-1---44-4-4-4-44-4-4-4-1~~~1h2~----|
c|-99-9-9-9-99-9-9-9-66-6-6-6-44-4-6-4-22-2-22-2-22-2---66-6-6-6-44-4-4-4-2~~~2~~~----|
g|-77-7-7-7-77-7-7-7-44-4-4-4-22-2-4-2-00-0-00-0-00-0---44-4-4-4-22-2-2-2-0~~~0~~~----|
D|------------------------------------------------------------------------------------|
                                       ** * ** * ** *                                    X1
d|---------------------------------------------5~4~-----5~4~----7~~5~~4~~4h5~4~-----------|
a|-4h5~~5~5~5~4h5~~7~7~7~4h5~~5~5~5~4h5~~7~7~7~---7~5~5~---7~5~5~-------------7~5~~4h5~~--|
f|----------------------------------------------------------------------------------------|
c|----------------------------------------------------------------------------------------|
g|----------------------------------------------------------------------------------------|
D|------------------------------------------------------------------------------------{{{-|




Verse:                                                              X2
d|-------------------------------------------------------------------|
a|-------------------------------------------------------------------|
f|-------------------------------------------------------------------|
c|-----9996------------9996------------9996------------9996----6h777-|
g|-0000-----77777770000-----7777777---------7777777---------777------|
D|---------------------------------9999------------7777--------------|
   ******** *************** *************** *************** ***     X1
d|-------------------------------------------------------------------|
a|-------------------------------------------------------------------|
f|-11111111-111111111111111-111111144444444-444444444444444-44444444-|
c|-22222222-222222222222222-222222266666666-666666644444444-44444444-|
g|-00000000-000000000000000-000000044444444-444444422222222-22222222-|
D|-------------------------------------------------------------------|
   ******** *************** *************** *************** ********



Pre-Chorus:      X1
d|----------------|
a|----------------|
f|---1b~~~~~2~~~--|
c|--2~~~~~~2~~~~--|
g|-0~~~~~~0~~~~~--|
D|----------------|
                 X1
d|----------------|
a|----------------|
f|---1b~~~~~2~~~--|
c|--2~~~~~~2~~~~--|
g|-0~~~~~~0~~~~~--|
D|----------------|




Chorus:                                                                   X1
d|-------------------------------------------------------------------------|
a|-0-00-000-0-00-000-0-00-000-0-00-000-0-00-000-0-00-000-0-00-000-0-00-----|
f|-8-88-888-1-11-111-4-44-444-4-44-444-1-11-111-2-22-222-1-11-111-2-22-xxx-|
c|-9-99-999-2-22-222-6-66-666-4-44-444-2-22-222-2-22-222-2-22-222-2-22-xxx-|
g|-7-77-777-0-00-000-4-44-444-2-22-222-0-00-000-0-00-000-0-00-000-0-00-xxx-|
D|-------------------------------------------------------------------------|
                                                                          X1
d|-------------------------------------------------------------------------|
a|-0-00-000-0-00-000-0-00-000-0-00-000-0-00-000-0-00-000-0-00-000-0-00-000-|
f|-8-88-888-1-11-111-4-44-444-4-44-444-1-11-111-2-22-222-1-11-111-2-22-222-|
c|-9-99-999-2-22-222-6-66-666-4-44-444-2-22-222-2-22-222-2-22-222-2-22-222-|
g|-7-77-777-0-00-000-4-44-444-2-22-222-0-00-000-0-00-000-0-00-000-0-00-000-|
D|-------------------------------------------------------------------------|

                                                                          X1
d|-------------------------------------------------------------------------|
a|---12~~~~10~~~~~~~~~~9~~~~~~7~~~~~~~~---5~~~~~~~5~~~~~~~~5~~~~~~~~5~~~~~-|
f|-----9~~~~~~9h11p9~~~~~9~~~~~~9~~~~~~-----4~~~~~~~~4~~~~~~~~4~~~~~~~4~~~-|
c|-9~~~~~9~~~9~~~~~~~9~~~~~9~~~~~~7~~~~76~~~~~~67~~~~~~~76~~~~~~~67~~~~~~7-|
g|-------------------------------------------------------------------------|
D|-------------------------------------------------------------------------|
                                                                          X1
d|-------------------------------------------------------------------------|
a|-0-00-000-0-00-000-0-00-000-0-00-000-0-00-000-0-00-000-0-00-000-0-00-000-|
f|-8-88-888-1-11-111-4-44-444-4-44-444-1-11-111-2-22-222-1-11-111-2-22-222-|
c|-9-99-999-2-22-222-6-66-666-4-44-444-2-22-222-2-22-222-2-22-222-2-22-222-|
g|-7-77-777-0-00-000-4-44-444-2-22-222-0-00-000-0-00-000-0-00-000-0-00-000-|
D|-------------------------------------------------------------------------|




Post-Chorus:                         X2
d|------------------------------------|
a|------------------------------------|
f|----4~~~~~4~~~~~~~~~~8~~~~----------|
c|------6~~~~~6~~~6/~~~~~9~~~---6b~~--|
g|-4~~~~~~4~~~~~4~~/7~~~~~~7~0~~~~~~0-|
D|------------------------------------|
                                     X1                                   X1
d|------------------------------------|------------------------------------|
a|-0~~~~~~~~~~~~~~~~~~~~~~~~~~~~~~~~~-|-0-00~~~~---------------------------|
f|-4~~~~~~~~~~~~~~~~~~~~~~~~~~~~~~~~~-|-4-44~~\\-----------------------1~~-|
c|-6~~~~~~~~~~~~~~~~~~~~~~~~~~~~~~~~~-|-6-66~~\\-----------------------2~~-|
g|-4~~~~~~~~~~~~~~~~~~~~~~~~~~~~~~~~~-|-4-44~~\\-----------------------0~~-|
D|------------------------------------|------------------------------------|
                                                                       *
                                     X1                                   X1
d|------------------------------------|------------------------------------|
a|------------------------------------|---------------------------000~000~-|
f|----4~~~~~4~~~~~~~~~~8~~~~----------|----4~~~~~4~~~~~~~~~~8~~~~-111~222~-|
c|------6~~~~~6~~~6/~~~~~9~~~---6b~~~-|------6~~~~~6~~~6/~~~~~9~~~222~222~-|
g|-4~~~~~~4~~~~~4~~/7~~~~~~7~0~~~~~~0-|-4~~~~~~4~~~~~4~~/7~~~~~~7~000~000~-|
D|------------------------------------|------------------------------------|
                                     X1                           **  **  X1
d|------------------------------------|------------------------------------|
a|-0-00-00000000000-0-00-000-0-00-000-|-0-00-00000000000-0-00-000-000~000~-|
f|-4-44-44444444444/8-88-888\1-11-111-|-4-44-44444444444/8-88-888\111~222~-|
c|-6-66-66666666666/9-99-999\2-22-222-|-6-66-66666666666/9-99-999\222~222~-|
g|-4-44-44444444444/7-77-777\0-00-000-|-4-44-44444444444/7-77-777\000~000~-|
D|------------------------------------|------------------------------------|
                                                                  **  **



Bridge:                                              X1
d|----------------------------------------------------|
a|-0~~~--0~~~~-0~~~--0~~~~-0~~~--0~~~~----------------|
f|-4~~~x-1~~~~-4~~~x-1~~~~-4~~~x-1~~~~---8~~~-----4~~-|
c|-6~~~x-2~~~~-6~~~x-2~~~~-6~~~x-2~~~~-----9~---4~~4~-|
g|-4~~~0-0~~~~-4~~~0-0~~~~-4~~~0-0~~~h4/7~~~\2~~~~~~~-|
D|----------------------------------------------------|
       *           *           *                     X1
d|----------------------------------------------------|
a|-0--------------------------------------------------|
f|-4\\\-----------------------------------------------|
c|-6\\\-----------------------------------------------|
g|-4\\\-----------------------------------------------|
D|----------------------------------------------------|

                                                       X1
d|------------------------------------------------------|
a|-0~~~--0~~~~-0~~~--0~~~~-0~~~--0~~~~------------------|
f|-4~~~x-1~~~~-4~~~x-1~~~~-4~~~x-1~~~~--------------1b~-|
c|-6~~~x-2~~~~-6~~~x-2~~~~-6~~~x-2~~~~---6------2~~~~~~-|
g|-4~~~0-0~~~~-4~~~0-0~~~~-4~~~0-0~~~~-4~~~4~~0~~~0~~~~-|
D|------------------------------------------------------|
       *           *           *                       X1
d|------------------------------------------------------|
a|-0~~~~-0~~~~-0~~~~-0~~~~-0~~~~-0~~~~------------------|
f|-4~~~~-1~~1b~4~~~~-1~~1b~4~~~~-1~~1b~--------11111111-|
c|-6~~~~-2~2~~-6~~~~-2~2~~-6~~~~-2~2~~-4444444422222222-|
g|-4~~~~-0~~~~-4~~~~-0~~~~-4~~~~-0~~~~-4444444400000000-|
D|-------------------------------------22222222---------|
                                       ****************



Pre-Chorus 2:                                        X1
d|----------------------------------0~0000000/0000000-|
a|-5--5555----5--5555----5--5555----5~5555555/7777777-|
f|-4~~4444----4~~4444----4~~4444----------------------|
c|-6~~6666----6~~6666----6~~6666----------------------|
g|-4~~4444----4~~4444----4~~4444----------------------|
D|----------------------------------------------------|
                                                     X1
d|----------------------------------------------------|
a|----------------------------------0~000000000000000-|
f|-4~~4444----4~~4444----4~~4444----1~111111144444444-|
c|-6~~6666----6~~6666----6~~6666----2~222222244444444-|
g|-4~~4444----4~~4444----4~~4444----0~000000022222222-|
D|----------------------------------------------------|

                      X3                  X1
d|-----------7~5~4h5p4-|-0~000000/0/0000\0-|
a|-5--55554h5----------|-5~555555/7/9999\7-|
f|-4~~4444-------------|-------------------|
c|-6~~6666-------------|-------------------|
g|-4~~4444-------------|-------------------|
D|---------------------|-------------------|
                                                     X1
d|----------------------------------------------------|
a|----------------------------------0~000000000000000-|
f|-4~~4444----4~~4444----4~~4444----1~111111144444444-|
c|-6~~6666----6~~6666----6~~6666----2~222222244444444-|
g|-4~~4444----4~~4444----4~~4444----0~000000022222222-|
D|----------------------------------------------------|




Chorus:                                                                   X1
d|-------------------------------------------------------------------------|
a|-0-00-000-0-00-000-0-00-000-0-00-000-0-00-000-0-00-000-0-00-000-0-00-----|
f|-8-88-888-1-11-111-4-44-444-4-44-444-1-11-111-2-22-222-1-11-111-2-22-xxx-|
c|-9-99-999-2-22-222-6-66-666-4-44-444-2-22-222-2-22-222-2-22-222-2-22-xxx-|
g|-7-77-777-0-00-000-4-44-444-2-22-222-0-00-000-0-00-000-0-00-000-0-00-xxx-|
D|-------------------------------------------------------------------------|

d|-------------------------------------------------------------------------|
a|-0-00-000-0-00-000-0-00-000-0-00-000-0-00-000-0-00-000-0-00-000-0-00-000-|
f|-8-88-888-1-11-111-4-44-444-4-44-444-1-11-111-2-22-222-1-11-111-2-22-222-|
c|-9-99-999-2-22-222-6-66-666-4-44-444-2-22-222-2-22-222-2-22-222-2-22-222-|
g|-7-77-777-0-00-000-4-44-444-2-22-222-0-00-000-0-00-000-0-00-000-0-00-000-|
D|-------------------------------------------------------------------------|

                                                                          X1
d|-------------------------------------------------------------------------|
a|---12~~~~10~~~~~~~~~~9~~~~~~7~~~~~~~~---5~~~~~~~5~~~~~~~~5~~~~~~~~5~~~~~-|
f|-----9~~~~~~9h11p9~~~~~9~~~~~~9~~~~~~-----4~~~~~~~~4~~~~~~~~4~~~~~~~4~~~-|
c|-9~~~~~9~~~9~~~~~~~9~~~~~9~~~~~~7~~~7-6~~~~~~67~~~~~~~76~~~~~~~67~~~~~~7-|
g|-------------------------------------------------------------------------|
D|-------------------------------------------------------------------------|
                                                                          X1
d|-------------------------------------------------------------------------|
a|-0-00-000-0-00-000-0-00-000-0-00-000-0-00-000-0-00-000-0-00-000-0-00-000-|
f|-8-88-888-1-11-111-4-44-444-4-44-444-1-11-111-2-22-222-1-11-111-2-22-222-|
c|-9-99-999-2-22-222-6-66-666-4-44-444-2-22-222-2-22-222-2-22-222-2-22-222-|
g|-7-77-777-0-00-000-4-44-444-2-22-222-0-00-000-0-00-000-0-00-000-0-00-000-|
D|-------------------------------------------------------------------------|

            X1
d|-----------|
a|-5~~~~~~~~-|
f|-4~~~~~~~~-|
c|-6~~~~~~~~-|
g|-----------|
D|-----------|
            X1
d|-----------|
a|-0~~~~~~~~-|
f|-1~~~~~~~~-|
c|-2~~~~~~~~-|
g|-0~~~~~~~~-|
D|-----------|




Outro:                                        X1
d|--0-0-0-0-0-0-0-0-00000000-00000000-00000000-|
a|-1212121212121212\55555555/77777777/99999999-|
f|---------------------------------------------|
c|---------------------------------------------|
g|---------------------------------------------|
D|---------------------------------------------|
                                      X1
d|-------------------------------------|
a|-00000000-00000000-00000000-00000000-|
f|-88888888-44444444-44444444-11111111-|
c|-99999999-66666666-44444444-22222222-|
g|-77777777-44444444-22222222-00000000-|
D|-------------------------------------|

                                                    X1
d|--0-0-0-0-0-0-0-0--0-0-0-0-0000-00000000-000-0~~~~-|
a|-1212121212121212\10101010\9999\77777777\444/5~~~~-|
f|---------------------------------------------------|
c|---------------------------------------------------|
g|---------------------------------------------------|
D|---------------------------------------------------|
                                      X1
d|-------------------------------------|
a|-00000000-00000000-00000000-0000~~~~-|
f|-88888888-44444444-44444444-1112~~~~-|
c|-99999999-66666666-44444444-2222~~~~-|
g|-77777777-44444444-22222222-0000~~~~-|
D|-------------------------------------|





----------------------------------------Grey--------------------------------------------


Intro:      X1
d|-----------|
a|-----------|
f|-666---999-|
c|-666---999-|
g|-444---777-|
D|-----------|
            X1
d|-----------|
a|-----------|
f|-----------|
c|-----------|
g|-----------|
D|-----------|




Pre-Verse:                                                          X1
d|-00-0-0-000-0-0-000-0-0-0----------00-0-0-000-0-0-00---000-0---000-|
a|-00-0-0-000-0-0-000-0-0-0----------00-0-0-000-0-0-00---000-0---000-|
f|-66-6-6-644-4-4-499-9-9-9----------66-6-6-644-4-4-42222222-2222222-|
c|-66-6-6-644-4-4-499-9-9-9777-777-7-66-6-6-644-4-4-42222222-2222222-|
g|-44-4-4-422-2-2-277-7-7-7777-777-7-44-4-4-422-2-2-20000000-0000000-|
D|-------------------------455-455-5---------------------------------|
                                                      ***     ***   X1
d|-00-0-0-000-0-0-000-0-0-0000-000-0-00-0-0-000-0-0-000-0-0-000-0-00-|
a|-55-5-5-577-7-7-799-9-9-9101010101055-5-5-577-7-7-755-5-5-555-5-55-|
f|-------------------------------------------------------------------|
c|-------------------------------------------------------------------|
g|-------------------------------------------------------------------|
D|-------------------------------------------------------------------|

                                                        X1
d|-00-0-0-000-0-0-000-0-0-0----------00-0-0-000-0-0-0----|
a|-00-0-0-000-0-0-000-0-0-0----------00-0-0-000-0-0-0----|
f|-66-6-6-644-4-4-499-9-9-9----------66-6-6-644-4-4-4----|
c|-66-6-6-644-4-4-499-9-9-9677-677-7-66-6-6-644-4-4-42~~-|
g|-44-4-4-422-2-2-277-7-7-7677-677-7-44-4-4-422-2-2-22~~-|
D|-------------------------455-455-5-----------------0~~-|
                                                        X1
d|-00-0-0-000-0-0-000-0-0-0000-000-0-00-0-0-000-0-0-00~~-|
a|-55-5-5-577-7-7-799-9-9-9121212121255-5-5-544-4-4-45~~-|
f|-------------------------------------------------------|
c|-------------------------------------------------------|
g|-------------------------------------------------------|
D|-------------------------------------------------------|


Pre-Verse cont: X1
d|---------------|
a|---------------|
f|---------------|
c|~2~~~~~~~~~~~~-|
g|~2~~~~~~~~~~~~-|
D|~0~~~~~~~~~~~~-|
   *            X1
d|-0~~~~~~~~~~~~-|
a|-5~~~~~~~~~~~~-|
f|---------------|
c|---------------|
g|---------------|
D|---------------|




Verse:            X12
d|-7772224440000000-|
a|-0000000000000000-|
f|------------------|
c|------------------|
g|------------------|
D|------------------|
   ****************                                                 X3
d|-------------------------------------------------------------------|
a|-------------------------------------------------------------------|
f|-22222222222222222222222222222222----------------------------------|
c|-22222222222222222222222222222222-22222222222222222222222222222222-|
g|-00000000000000000000000000000000-22222222222222222222222222222222-|
D|----------------------------------00000000000000000000000000000000-|
   ******************************** ********************************



Pre-Chorus:   X1                   X1                              X1
d|-------------|--------------------|-------------------------------|
a|-------------|--------------------|-12~9~10~7~9h10p9~12~9~~10p0~~-|
f|-----66------|-444/66-------------|---9~9~~9~9~~~~~~9~~9~9~~9~~~~-|
c|-----66---77-|-444/66-666/77-7777-|-------------------------------|
g|-----44---77-|-222/44-666/77-7777-|-------------------------------|
D|----------55-|--------444/55-5555-|-------------------------------|

              X1                   X2               X1
d|-------------|--------------------|----------------|
a|-------------|--------------------|----------------|
f|--44---------|-444/66-------------|-44~~66~~2~~~~~-|
c|--44----66---|-444/66-666/77-7777-|-44~~66~~2~~~~~-|
g|--22----66---|-222/44-666/77-7777-|-22~~44~~0~~~~~-|
D|--------44---|--------444/55-5555-|----------------|




Chorus:                                                                                     X1
d|-77777777555555550000000000000000000~~~~~7777777755555555000000000000~0000~0~~~~~0~~~~~~~~-|
a|-55555555555555555552222255555444444h5p4~5555555555555555555222225555~4444~4h5p4~0~~~~~~~~-|
f|-------------------------------------------------------------------------------------------|
c|-------------------------------------------------------------------------------------------|
g|-------------------------------------------------------------------------------------------|
D|-------------------------------------------------------------------------------------------|
                                                                                            X1
d|-------------------------------------------------------------------------------------------|
a|-------------------------------------------------------------------------------------------|
f|-------------------------6666x4444x4/6\4-------------------------6666-4444-4/6\4-2~~~~~~~~-|
c|-2222222244444444777777776666x4444xx/x\x-2222222244444444777777776666-4444-x/x\x-2~~~~~~~~-|
g|-2222222244444444777777774444x2222x2/4\2-2222222244444444777777774444-2222-2/4\2-0~~~~~~~~-|
D|-000000002222222255555555----------------000000002222222255555555--------------------------|




Post-Chorus:                         X1
d|-------12~~~~~~~~~~~~~~~~~~~~~~~~~~-|
a|---9~~~~~~~9~~~~~~~~~~~~~~~~~~~~~~~-|
f|-9~~~~~~~~~~~~~~~~~~~~~~~~~~~~~~~~~-|
c|------------------------------------|
g|------------------------------------|
D|------------------------------------|
                                     X1
d|-0~~~~~~~~~~~~~~~~~~~~~~~~~~~~~~~~~-|
a|-5~~~~~~~~~~~~~~~~~~~~~~~~~~~~~~~~~-|
f|-4~~~~~~~~~~~~~~~~~~~~~~~~~~~~~~~~~-|
c|-2~~~~~~~~~~~~~~~~~~~~~~~~~~~~~~~~~-|
g|-0~~~~~~~~~~~~~~~~~~~~~~~~~~~~~~~~~-|
D|------------------------------------|




2nd Verse:                           X2
d|---------------------0~~~0~~0~~~~~~-|
a|---9~~~~~~~9~~~~~--7~~~~~~~~~~~~~~~-|
f|-----9~~~~~~~9~~~------9~~8~~~~~~~~-|
c|-7~~~~~~~7~~~~~7~9~~~~~~~~~~~~~~~~~-|
g|------------------------------------|
D|------------------------------------|
                                     X2
d|------------------------------------|
a|------------------------------------|
f|-----4422----4422--4-44--4--4/6\4p2-|
c|---22------22----22-2---------------|
g|-00------00------------44-4---------|
D|------------------------------------|
   **************************



Bridge pt. 1:                                                          X1
d|----------------------------------------------------------------------|
a|----------------------------------------------------------------------|
f|-2222222222222222-4444444444444444-6666666666666666-9999998888889999--|
c|-2222222222222222-4444444444444444-6666666666666666-9999999999999999--|
g|-0000000000000000-2222222222222222-4444444444444444-7777777777777777--|
D|----------------------------------------------------------------------|
   **************** **************** **************** **************** x1
d|----------------------------------------------------------------------|
a|----------------------------------------------------------------------|
f|-2222222222222222-4444444444444444-6666666666666666-9999999999999999--|
c|-2222222222222222-4444444444444444-6666666666666666-9999999999999999--|
g|-0000000000000000-2222222222222222-4444444444444444-7777777777777777--|
D|----------------------------------------------------------------------|
   **************** **************** **************** ****************

Bridge pt. 2:                                                                                     X1
d|-----------------------------------------------------------------12~~----------------------------|
a|-12-12-12-12-12-12-12-12-10-10-10-10-10-10-10-10-7-7-7-7-7-7-7-7---9~~10~~~~12p10~~9~~~~9h10p9~~-|
f|---9--9--9--9--9--9--9--9--9--9--9--9--9--9--9--9-9-9-9-9-9-9-9-9---9~~~~~~~~~~~~9~~~~~~~~~~~~~~-|
c|-------------------------------------------------------------------------------------------------|
g|-------------------------------------------------------------------------------------------------|
D|-------------------------------------------------------------------------------------------------|
    ***********************                       *****************    X1
d|----------------------------------------------------------------------|
a|----------------------------------------------------------------------|
f|-2222222222222222-4444444444444444-6666666666666666-9999999999999999--|
c|-2222222222222222-4444444444444444-6666666666666666-9999999999999999--|
g|-0000000000000000-2222222222222222-4444444444444444-7777777777777777--|
D|----------------------------------------------------------------------|
   **************** **************** ****************     



Pre-Chorus:   X1                   X1                              X1
d|-------------|--------------------|-------------------------------|
a|-------------|--------------------|-12~9~10~7~9h10p9~12~9~~10p0~~-|
f|-----66------|-444/66-------------|---9~9~~9~9~~~~~~9~~9~9~~9~~~~-|
c|-----66---77-|-444/66-666/77-7777-|-------------------------------|
g|-----44---77-|-222/44-666/77-7777-|-------------------------------|
D|----------55-|--------444/55-5555-|-------------------------------|

              X1                   X1                         X1               X1
d|-------------|--------------------|--------------------------|----------------|
a|-------------|--------------------|--------------------------|----------------|
f|--44---------|-444/66-------------|-44~~-66~~----------------|-44~~66~~2~~~~~-|
c|--44----66---|-444/66-666/77-7777-|-44~~-66~~-66~~-77~~-7777-|-44~~66~~2~~~~~-|
g|--22----66---|-222/44-666/77-7777-|-22~~-44~~-66~~-77~~-7777-|-22~~44~~0~~~~~-|
D|--------44---|--------444/55-5555-|-----------44~~-55~~-5555-|----------------|




Chorus:                                                                                     X1
d|-77777777555555550000000000000000000~~~~~77777777555555-5000000000000-0000-------000~~~~~~-|
a|-55555555555555555552222255555444444h5p4~55555555555555-5555222225555-4444-------555~~~~~~-|
f|---------------------------------------------------------------------------------444~~~~~~-|
c|---------------------------------------------------------------------------------222~~~~~~-|
g|---------------------------------------------------------------------------------000~~~~~~-|
D|-------------------------------------------------------------------------------------------|
                                                                                            X1
d|-------------------------------------------------------------------------------------------|
a|-------------------------------------------------------------------------------------------|
f|-------------------------6666x4444x4/6\4-------------------------6666-4444-------222~~~~~~-|
c|-2222222244444444777777776666x4444xx/x\x-22222222444444-4777777776666-4444-------222~~~~~~-|
g|-2222222244444444777777774444x2222x2/4\2-22222222444444-4777777774444-2222-------000~~~~~~-|
D|-000000002222222255555555----------------00000000222222-255555555--------------------------|





--------------------------------------Heisenburg------------------------------------------


Intro:                                                       X1
d|------------------------------------------------------------|
a|------------------------------------------------------------|
f|-----------------4~~---6~~---9~~8b~~~-----------------------|
c|----------------4~4~--6~6~--9~9~~~9~~--6~~---8~~---9~~~~9~~-|
g|---------------2~~~2/4~~~4/7~~~7~~~7~-6~6~--8~8~--9~9~~9~9~-|
D|-------------------------------------4~~~4/6~~~6/7~~~77~~~7-|
                                                                    X1
d|-11h12p11\7hp9-9~~~~~~~~~~~~~~~~~~~~~~~~~~~~~~~~~~~~-11h12p11\7hp9-|
a|---------------0~~~~~~~~~~~~~~~~~~~~~~~~~~~~~~~~~~~~---------------|
f|-------------------------------------------------------------------|
c|-------------------------------------------------------------------|
g|-------------------------------------------------------------------|
D|-------------------------------------------------------------------|
                                                X1
d|-----------------------------------------------|
a|-----------------------------------------------|
f|---4~~---6~~---9~~8b~~~------------------------|
c|--4~4~--6~6~--9~9~~~9~~--6~~---8~~---9~~-99999-|
g|-2~~~2/4~~~4/7~~~7~~~7~-6~6~--8~8~--9~9~-99999-|
D|-----------------------4~~~4/6~~~6/7~~~7-77777-|
                                         X1
d|-9~~~~~~~~~~~~~~~~~~~~~------------------------|
a|-0~~~~~~~~~~~~~~~~~~~~~------------------------|
f|-----------------------------------------------|
c|-----------------------------------------------|
g|-----------------------------------------------|
D|------------------------------------{{{{{{{{{{-|




Post-Intro:                                                             X2
d|-----------------------------------------------------------------------|
a|-----------------------------------------------------------------------|
f|-44-4-4-4/66-6-6-6/99-9-9-988-8-9-9------------------------------------|
c|-44-4-4-4/66-6-6-6/99-9-9-999-9-9-9-66-6-6-6/88-8-8-8/99-9-9-999-9-9-9-|
g|-22-2-2-2/44-4-4-4/77-7-7-777-7-7-7-66-6-6-6/88-8-8-8/99-9-9-999-9-9-9-|
D|------------------------------------44-4-4-4/66-6-6-6/77-7-7-777-7-7-7-|
                                                                        X2
d|-----------------------------------------------------------------------|
a|-----------------------------------------------------------------------|
f|-44-4-4-4/66-6-6-6/99-9-9-988-8-9-9------------------------------------|
c|-44-4-4-4/66-6-6-6/99-9-9-999-9-9-9-66-6-6-6/88-8-8-8/99-9-9-999-9-9-9-|
g|-22-2-2-2/44-4-4-4/77-7-7-777-7-7-7-66-6-6-6/88-8-8-8/99-9-9-999-9-9-9-|
D|------------------------------------44-4-4-4/66-6-6-6/77-7-7-777-7-7-7-|




Pre-Verse:                            X1
d|-2~~~~~~~~~~~~-----------------------|
a|-2~~~~~~~~~~~~-----------------------|
f|-4~~~~~~~~~~~~-4p3-6p3-4~~~~~~~~~~~~-|
c|-4~~~~~~~~~~~~-----------------------|
g|-2~~~~~~~~~~~~-----------------------|
D|-------------------------------------|
                                      X1
d|-------------------------------------|
a|-------------------------------------|
f|-------------------------------------|
c|-9~~~~~~~~~~~~~~~~~~~~~~~~~~~~~~~~~~-|
g|-9~~~~~~~~~~~~~~~~~~~~~~~~~~~~~~~~~~-|
D|-7~~~~~~~~~~~~~~~~~~~~~~~~~~~~~~~~~~-|




Verse:                                 X2
d|--------------------------------------|
a|--------------------------------------|
f|---4--4--3--3--3h4--4--4----4-4p3-6p4-|
c|--------------------------------------|
g|-22-22-22-22-22-----------------------|
D|------------------44-44-4400-0--------|
   ** ** ** ** **   ** ** **** *       X2
d|-777777-6666666666-444444-777777-6666-|
a|-777777-7777777777-777777-777777-7777-|
f|--------------------------------------|
c|--------------------------------------|
g|--------------------------------------|
D|--------------------------------------|
   ***** *********** ****** ***** *****



Pre-Chorus:                          X1
d|------------------------------------|
a|------------------------------------|
f|----------------------------33xx3/4-|
c|-2~~~~~~~~~~~~~~~~~~-2~2~2~-33xx3/4-|
g|-2~~~~~~~~~~~~~~~~~~-2~2~2~-11xx1/2-|
D|-0~~~~~~~~~~~~~~~~~~-0~0~0~---------|
                                     X1
d|-7777777777777777777-7~7~7~---------|
a|-5555555555555555555-5~5~5~---------|
f|------------------------------------|
c|------------------------------------|
g|------------------------------------|
D|------------------------------------|




Chorus:                                     X1
d|-------------------------------------------|
a|-------------------------------------------|
f|-4--------------------4----9---13-11-13-11-|
c|-4----2----6----4--2--4----9----X--X--X--X-|
g|-2----2----6----4--2--2----7---11--9-11--9-|
D|------0----4----2--0-----------------------|
                                            X1
d|-------------------------------------------|
a|-------------------------------------------|
f|-4--------------------4--------------------|
c|-4----2----6----4--2--4----2----6--4--6--4-|
g|-2----2----6----4--2--2----2----6--4--6--4-|
D|------0----4----2--0-------0----4--2--4--2-|
                                                                    X1
d|-------------------------------------------------------------------|
a|-------------------------------------------------------------------|
f|----99p8~~~88h9~~~1111p9~~~9p89p8~~~~~99p8~~~88h9-1111--99--88--99-|
c|-9~~~~~~9~~~~~~9~~~~~~~~9~~~~~~~~~~9~~~~~~9~~~~~~--9-9--99--99--99-|
g|-------------------------------------------------------------------|
D|-------------------------------------------------------------------|
                                            X1
d|-------------------------------------------|
a|-------------------------------------------|
f|-4--------------------4----9---13-11-13-11-|
c|-4----2----6----4--2--4----9----X--X--X--X-|
g|-2----2----6----4--2--2----7---11--9-11--9-|
D|------0----4----2--0-----------------------|




Post-Chorus:                            X1
d|---------------------------------------|
a|------12~~~~12~~~~~~~~~~~12~~~~12~~~~~-|
f|--------11~~~~11~~11~~~~~~~11~~~~11~~~-|
c|-14~14~~~~14~~~~14~~~~13~~~~~13~~~~13\-|
g|---------------------------------------|
D|---------------------------------------|
               X1
d|--------------|
a|--------------|
f|----9----8----|
c|----9----9----|
g|----7----6----|
D|--------------|




2nd Verse:                                X1
d|-----------------------------------------|
a|--7~~~----------------4~~~~~~~~~--4~4/5~-|
f|---8~~6h8p6-8~~~8h9~---4~~4h6p4~-4~~~~~~-|
c|-9~~~9-------9~~~~~~-6~~~6~~~~~~2~~2~~~~-|
g|-----------7~~~7~~~~---------------------|
D|-----------------------------------------|
                                          X1
d|-----------------------------------------|
a|-----------------------------------------|
f|-----------------------------------------|
c|-9~~~~~~~~~~~~~~~~~~~~~~~~~~~~~~~~~~~~~~-|
g|-----------------------------------------|
D|-----------------------------------------|
                                             
                                          X1
d|-----------------------------------------|
a|--7~~~----------------4~~~~~~~~~--4~4/5~-|
f|---8~~6h8p6-8~~~8h9~---4~~4h6p4~-4~~~~~~-|
c|-9~~~9-------9~~~~~~-6~~~6~~~~~~2~~2~~~~-|
g|-----------7~~~7~~~~---------------------|
D|-----------------------------------------|
                                                                   X1
d|------------------------------------------------------------------|
a|------------------------------------------------------------------|
f|-44444444444444449999999999999999----------------9999999999999999-|
c|-4444444444444444999999999999999966666666666666669999999999999999-|
g|-2222222222222222777777777777777766666666666666667777777777777777-|
D|---------------------------------4444444444444444-----------------|
   ****************************************************************



Pre-Chorus 2:                                     X!
d|-------------------------------------------------|
a|-------------------------------------------------|
f|---4~~~~~~--8b~~~~~--4~~~~~~--888888888888888-88-|
c|--6~~~~~~~-9~~9~~~~-6~~~~~~~--999999999999999-99-|
g|-4~~~~~~~~7~~~~~~~~4~~~~~~~4/7777777777777777-77-|
D|-------------------------------------------------|
                                        *******   X1 
d|-------------------------------------------------|
a|-------------------------------------------------|
f|-4~~~~~~~~8~~~~~~~~4~~~~~~~~--88888888--------88-|
c|-6~~~~~~~~9~~~~~~~~6~~~~~~~~--99999999--------99-|
g|-4~~~~~~~~7~~~~~~~~4~~~~~~~~--77777777--------77-|
D|-------------------------------------------------|




Chorus:                                     X1
d|-------------------------------------------|
a|-------------------------------------------|
f|-4--------------------4----9---13-11-13-11-|
c|-4----2----6----4--2--4----9----X--X--X--X-|
g|-2----2----6----4--2--2----7---11--9-11--9-|
D|------0----4----2--0-----------------------|
                                            X1
d|-------------------------------------------|
a|-------------------------------------------|
f|-4--------------------4--------------------|
c|-4----2----6----4--2--4----2----6--4--6--4-|
g|-2----2----6----4--2--2----2----6--4--6--4-|
D|------0----4----2--0-------0----4--2--4--2-|
                                                                    X1
d|-------------------------------------------------------------------|
a|-------------------------------------------------------------------|
f|----99p8~~~88h9~~~1111p9~~~9p89p8~~~~~99p8~~~88h9-1111--99--88--99-|
c|-9~~~~~~9~~~~~~9~~~~~~~~9~~~~~~~~~~9~~~~~~9~~~~~~--9-9--99--99--99-|
g|-------------------------------------------------------------------|
D|-------------------------------------------------------------------|
                                            X1
d|-------------------------------------------|
a|-------------------------------------------|
f|-4--------------------4----9---13-11-13-11-|
c|-4----2----6----4--2--4----9----X--X--X--X-|
g|-2----2----6----4--2--2----7---11--9-11--9-|
D|------0----4----2--0-----------------------|




Post-Chorus:                            X1
d|---------------------------------------|
a|------12~~~~12~~~~~~~~~~~12~~~~12~~~~~-|
f|--------11~~~~11~~11~~~~~~~11~~~~11~~~-|
c|-14~14~~~~14~~~~14~~~~13~~~~~13~~~~13\-|
g|---------------------------------------|
D|---------------------------------------|
               X1
d|--------------|
a|--------------|
f|----9----8----|
c|----9----9----|
g|----7----6----|
D|--------------|




Bridge:                           X1                                    X2
d|---------------------------------|-------------------------------------|
a|---------------------------------|--7~~~~~~~-7~~~~~~~-7~~~~~~~~7~~~7~~-|
f|-4~~~~~~~~~~~~~~~~~~~~~~~~~~~~~~-|---6~~~~~~--6~~~~~~--6~~~~~~9~9~8~8~-|
c|-4~~~~~~~~~~~~~~~~~~~~~~~~~~~~~~-|-9~~~9~~~~9~~~9~~~~9~~~9~~~~---------|
g|-2~~~~~~~~~~~~~~~~~~~~~~~~~~~~~~-|-------------------------------------|
D|---------------------------------|-------------------------------------|
                                  X1                                X2
d|---------------------------------|---------------------------------|
a|---------------------------------|---------------------------------|
f|---4~~~~--6~~~~--9~8b~~~9~~8b~~~-|---4~~~~--6~~~~--9~8b~~~9~~8b~~~-|
c|--4~4~4~-6~6~6~-9~9~~~~9~9~~~~9~-|--4~4~4~-6~6~6~-9~9~~~~9~9~~~~9~-|
g|-2~~~2~~4~~~4~~7~~~~~~~~~~~~~7~~-|-2~~~2~~4~~~4~~7~~~~~~~~~~~~~7~~-|
D|---------------------------------|---------------------------------|
                                  X1                                    X2
d|-2~~~~~~~~~~~~~~~~~~~~~~~~~~~~~~-|-------------------------------------|
a|-2~~~~~~~~~~~~~~~~~~~~~~~~~~~~~~-|-------------------------------------|
f|-4~~~~~~~~~~~~~~~~~~~~~~~~~~~~~~-|-44444444-66666666-99999999-99999999-|
c|-4~~~~~~~~~~~~~~~~~~~~~~~~~~~~~~-|-44444444-66666666-99999999-99999999-|
g|-2~~~~~~~~~~~~~~~~~~~~~~~~~~~~~~-|-22222222-44444444-77777777-77777777-|
D|---------------------------------|-------------------------------------|
                                     ******** ******** ******** ******** 
                                        X1
d|---------------------------------------|
a|--7~~~~~~~-7~~~~~~~-7~~~~~~~~7~~-------|
f|---6~~~~~~--6~~~~~~--6~~~~~~9~9~8b~~~~-|
c|-9~~~9~~~~9~~~9~~~~9~~~9~~~~-----------|
g|---------------------------------------|
D|---------------------------------------|
                                        X1
d|---------------2~~~~~~~~~~~~~~~~~~~~---|
a|----------------2~~~~~~~~~~~~~~~~~~~---|
f|-4~~~~~~~~~~~~~~~4~~~~~~~~~~~~~~~~~~---|
c|-4~~~~~~~~~~~~~~~~4~~~~~~~~~~~~~~~~~2~-|
g|-2~~~~~~~~~~~~~~~~~2~~~~~~~~~~~~~~~~2~-|
D|------------------------------------0~-|
                                      * X1
d|---------------------------------------|
a|---------------------------------------|
f|-4~~~~~~~~~~~~~~~~~~~~~~~~~~~~~~~~~~---|
c|-4~~~~~~~~~~~~~~~~~~~~~~~~~~~~~~~~~~2~-|
g|-2~~~~~~~~~~~~~~~~~~~~~~~~~~~~~~~~~~2~-|
D|------------------------------------0~-|
                                      *



Outro 1:                                                                X2
d|-----------------------------------------------------------------------|
a|-77777777-77777777-1212121212121212-77777777-77777777-1212121212121212-|
f|-88888888-8h999999-1111111111111111-88888888-8h999999-1111111111111111-|
c|-99999999-99999999-9999999999999999-99999999-99999999-9999999991111999-|
g|-----------------------------------------------------------------------|
D|-----------------------------------------------------------------------|
                                                                        X2
d|-----------------------------------------------------------------------|
a|-----------------------------------------------------------------------|
f|-44444444-66666666-9999999999999999-44444444-66666666------------------|
c|-44444444-66666666-9999999999999999-44444444-66666666-2222222222222222-|
g|-22222222-44444444-7777777777777777-22222222-44444444-2222222222222222-|
D|------------------------------------------------------0000000000000000-|
                                  X4
d|---------------------------------|
a|---------------------------------|
f|---4~~~~--6~~~~--9~8b~~~9~~8b~~~-|
c|--4~4~4~-6~6~6~-9~9~~~~9~9~~~~9~-|
g|-2~~~2~~4~~~4~~7~~~~~~~~~~~~~7~~-|
D|---------------------------------|


Outro 2:                                                                X2
d|-00000000-00000000--0-0-0-0-0-0-0-0-00000000-00000000--0-0-0-0-0-0-0-0-|
a|-77777777-77777777-1212121212121212-77777777-77777777-1212121212121212-|
f|-88888888-8h999999-1111111111111111-88888888-8h999999-1111111111111111-|
c|-99999999-99999999--9-9-9-9-9-9-9-9-99999999-99999999--9-9-9-9111111-9-|
g|-----------------------------------------------------------------------|
D|-----------------------------------------------------------------------|
                                                            X2
d|-----2~~~~~~2~~~~~~2~~~~~~2~~~~~~2~~~~~~2~~~~~~2~~~~~~2~~~-|
a|-------2~~~~~~2~~~~~~2~~~~~~2~~~~~~4~~~~~~4~~~~~~4~~~~~~4~-|
f|-4~4~~~~~~4~~~~~~4~~~~~~4~~~~4~4~~~~~~4~~~~~~4~~~~~~4~~~~~-|
c|-----------------------------------------------------------|
g|-----------------------------------------------------------|
D|-----------------------------------------------------------|








d|----------|
a|----------|
f|- SEAN'S -|
c|- GUITAR -|
g|----------|
D|----------|
 |
d|--------------|
a|--------------|
f|---- 2nd  ----|
c|--- GUITAR ---|
g|--------------|
D|--------------|

TAB KEY
____________________
~ = Let Note Ring   |
                    |
` = Tremelo Picking |
                    |
\ = Slide Down Neck |
                    |
/ = Slide Up Neck   |
                    |
h = Hammer On       |
                    |
p = Pull Off        |
                    |
b = Bend String     |
                    |
x = chugs           |
                    |
* = Palm Mute       |
                    |
{ = Pick Scrape     |
____________________|
comments
We did not receive enough feedback on this tab! Please rate:
print report bad tab
1 2 3 4 5
I want to post or [tab]
guest
You may want to rate the tab now too:
select rating
Please do not post tabs as comments. Select "correction" instead!