Oops, an error
Loading. Please wait.

Live Wire Bass Tab

332 views 1 this week
no commentswrite comment
1 2 3 4 5
please rate
Autoscroll
+/-
esc
set tempo
stop
WARNING: You are trying to view
                                    content from Ultimate-Guitar.com
                                    in an unauthorized application,
                                    which is prohibited.

                                    Please use an official Ultimate
                                    Guitar Tabs application for iPhone,
                                    iPad or Android to access legitimate
                                    chords, guitar, bass, and drum tabs
                                    from Ultimate-Guitar.com database.

                                    Type "ultimate guitar tabs" in Apple
                                    App Store's or Android Market's
                                    search to find the application.
Fozzy - Live Wire
Tabbed By: Jamie Withers
EMail: jwmanson@hotmail.com
Album: Fozzy
Tuning: D,G,C,F

    Guitar                                                              
F---------------------------|-----------------|-------------------------
C---------------------------|-----------------|-------------------------
G---------------------------|--3--3-----5--5--|-------------------------
D---------------------------|-----------------|-------------------------
                                                                                                                                               
F---------|--------------------|--------------------|-------------------
C---------|--------------------|--------------------|-------------------
G---------|--------------------|--------------------|-------------------
D------3--|--5--5--5--5--5--3--|--5--5--5--5--5--3--|--5--5--5--5--5----
                                                                                                                                                
F------|--------------------|--------------------|----------------------
C------|--------------------|--------------------|----------------------
G------|--3--3-----5--5-----|--------------------|----------------------
D---3--|-----------------3--|--5--5--5--5--5--3--|--5--5--5--5--5--3----
                                                                        
                                                 verse                  
F---|--------------------|--------------------|--------------------|----
C---|--------------------|--------------------|--------------------|----
G---|--------------------|--3--3-----5--5-----|--------------------|----
D---|--5--5--5--5--5--3--|-----------------3--|--5--5--5--5--5--3--|----
                                                                                                                                                
F---------------------|--------------------|-----------------------|----
C---------------------|--------------------|-----------------------|----
G---------------------|--------------------|-----------------------|----
D---5--5--5--5--5--3--|--5--5--5--5--5--3--|--5--5--5--3--5--5--5--|----
                                                                                                                                                
F---------------------|--------------------|--------------------|-------
C---------------------|--------------------|--------------------|-------
G---------------------|--------------------|--------------------|-------
D---5--5--5--5--5--3--|--5--5--5--5--5--3--|--5--5--5--5--5--3--|--5----
                                                                                                                                                
F---------------------|--------------------|--------------------|-------
C---------------------|--------------------|--------------------|-------
G---------------------|--------------------|--------------------|-------
D---5--5--3--5--5--5--|--5--5--5--5--5--3--|--5--5--5--5--5--3--|--5----
                                                                                                                                                
F------------------|-----------------------|----------------------------
C------------------|-----------------------|----------------------------
G------------------|-----------------------|--8--------8--8-------------
D---5--5--5--5--3--|--5--5--5--3--5--5--5--|-----------------10--8------
                                                                                                                                                
F----------|-----------------------------------|--------------|---------
C----------|-----------------------------------|--------------|---------
G----------|--10--------10--10-----------------|--------------|---------
D---10--7--|--------------------12--10--12--3--|--------------|---------
                                                                        
    chorus                                                              
F---------------------------|--------------------------|----------------
C---------------7--7-----7--|--------------5--5-----5--|----------------
G---------------------7-----|--------------------5-----|----------------
D---5--5--5--5--------------|--3--3--3--3--------------|--1--1--1--1----
                                                                                                                                                
F---------------|--------------------------|----------------------------
C---3--3-----3--|--------------5--5-----5--|--------------7--7-----7----
G---------3-----|--------------------5-----|--------------------7-------
D---------------|--3--3--3--3--------------|--5--5--5--5----------------
                                                                                                                                                
F---|--------------------------|--------------------------|-------------
C---|--------------5--5-----5--|--------------3--3-----3--|-------------
G---|--------------------5-----|--------------------3-----|-------------
D---|--3--3--3--3--------------|--1--1--1--1--------------|--3--3--3----
                                                                                                                                                
F------------------|--------------------------|-----------------|-------
C------5--5-----5--|--------------------------|-----------------|-------
G------------5-----|--------------------------|--3--3-----5-----|--0----
D---3--------------|--------------------------|-----------------|-------
                                                                                                                                                
F------------------------|-----------------------------------|----------
C------------------------|-----------------------------------|----------
G------0-----0-----0--0--|--0-----0-----0--0--0--0--0--0-----|----------
D------------------------|--------------------------------3--|--5--5----
                                                                                                                                                
F---------------|--------------------|--------------------|-------------
C---------------|--------------------|--------------------|-------------
G---------------|--------------------|--------------------|--3--3-------
D---5--5--5--3--|--5--5--5--5--5--3--|--5--5--5--5--5--3--|-------------
                                                                                                                                                
F------------|--------------------|--------------------|----------------
C------------|--------------------|--------------------|----------------
G---5--5-----|--------------------|--------------------|----------------
D---------3--|--5--5--5--5--5--3--|--5--5--5--5--5--3--|--5--5--5--5----
 
F---------|--------------------|
C---------|--------------------|
G---------|--3--3-----5--5-----|
D---5--3--|-----------------3--|
                                                                        

                                                                        
chorus extention ( for 2nd chorus)     
F---------|------------------------|-------------5--------|-------------
C------5--|--5h7--7--7--5h7--7--7--|--5h7--7--7--------7--|--5h7--7-----
G---5-----|------------------------|----------------------|-------------
D---------|------------------------|----------------------|-------------
                                                                                                                                               
F-----------------|-------------5-----7--|------------------------|-----
C---7--5h7--7--7--|--5h7--7--7-----------|--5h7--7--7--5h7--7--7--|-----
G-----------------|----------------------|------------------------|-----
D-----------------|----------------------|------------------------|-----
                                                                                                                                               
F--------------5--------|------------------------|----------------------
C---5h7--7--7--------7--|--5h7--7--7--5h7--7--7--|--7--5----------------
G-----------------------|------------------------|--------7--5----------
D-----------------------|------------------------|--------------7--5----
                                                                                                                                                
F---------|--------------------------|--------------------------|-------
C---------|--------------------------|--------------------------|-------
G---------|--0--0--0--0--0--0--0--0--|--0--0--0--0--0--0--0--0--|--0----
D---3--0--|--------------------------|--------------------------|-------
                                                                                                                                                
F------------------------|---------------------------------|------------
C------------------------|-------------------5--7----5--7--|------------
G---0--0--0--0--0--0--0--|--0--0--0--0---/7------/7--------|--0--0------
D------------------------|---------------------------------|------------
                                                                                                                                                
F---------------------|--------------------------|----------------------
C---------------------|--------------------------|----------------------
G---0--0--0--0--0--0--|--0--0--0--0--0--0--0--0--|--0--0--0--0--0--0----
D---------------------|--------------------------|----------------------
                                                                                                                                                
F---------|------------------------------------------------|------------
C---------|------------------------------------------------|------------
G---0--0--|---/12--12--12--12--12--12--12--12--12--12--12--|------------
D---------|------------------------------------------------|--5--5------
                                                                                                                                                
F---------------------|--------------------------|----------------------
C---------7--7-----7--|--------------5--5-----5--|--------------3--3----
G---------------7-----|--------------------5-----|----------------------
D---5--5--------------|--3--3--3--3--------------|--1--1--1--1----------
                                                                                                                                               
F---------|--------------------------|--------------------------|-------
C------3--|--------------5--5-----5--|--------------7--7-----7--|-------
G---3-----|--------------------5-----|--------------------7-----|-------
D---------|--3--3--3--3--------------|--5--5--5--5--------------|--3----
                                                                                                                                                
F------------------------|--------------------------|-------------------
C------------5--5-----5--|--------------3--3-----3--|--------------5----
G------------------5-----|--------------------3-----|-------------------
D---3--3--3--------------|--1--1--1--1--------------|--3--3--3--3-------
                                                                                                                                                
F------------|--------------------------|--------------------------|----
C---5-----5--|--------------------------|--------------------------|----
G------5-----|--------------------------|--------------------------|----
D------------|--5--5--5--5--5--5--5--5--|--3--3--3--3--3--3--3--3--|----
                                                                                                                                                
F---------------------------|--------------------------|----------------
C---------------------------|--------------------------|----------------
G---------------------------|--------------------------|----------------
D---1--1--1--1--1--1--1--1--|--3--3--3--3--3--3--3--3--|--5--5--5--5----
                                                                                                                                                
F---------------|--------------------------|----------------------------
C---------------|--------------------------|----------------------------
G---------------|--------------------------|----------------------------
D---5--5--5--5--|--3--3--3--3--3--3--3--3--|--1--1--1--1--1--1--1--1----
                                                                                                                                                
F---|--------------------------|--------------------|-------------------
C---|--------------------------|--------------------|-------------------
G---|--------------------------|--------------------|-------------------
D---|--3--3--3--3--3--3--3--3--|-----------------3--|--5--5--5--5--5----
                                                                                                                                                
F------|--------------------|--------------------|----------------------
C------|--------------------|--------------------|----------------------
G------|--------------------|--------------------|--3--3-----5----------
D---3--|--5--5--5--5--5--3--|--5--5--5--5--5--3--|----------------------
                                                                        

                                                                        
F---|-----------------|--------------------|--------------------|-------
C---|-----------------|--------------------|--------------------|-------
G---|-----------------|--------------------|--------------------|-------
D---|--------------3--|--5--5--5--5--5--3--|--5--5--5--5--5--3--|--5----
                                                                                                                                                
F------------------|--------------------------|--------------------|----
C------------------|--------------------------|--------------------|----
G------------------|--3--3-----5--------------|--------------------|----
D---5--5--5--5--3--|-----------------------3--|--5--5--5--5--5--3--|----
                                                                                                                                               
F---------------------|--------------------|----------------------------
C---------------------|--------------------|----------------------------
G---------------------|--------------------|--3--3-----5----------------
D---5--5--5--5--5--3--|--5--5--5--5--5--3--|----------------------------
                                                                                                                                                
F------|--------------------|--------------------|----------------------
C------|--------------------|--------------------|----------------------
G------|--------------------|--------------------|----------------------
D---3--|--5--5--5--5--5--3--|--5--5--5--5--5--3--|--5--5--5--5--5--3----
                                                                                                                                                
F---|-----------------------------|-------------------------------------
C---|-----------------------------|-------------------------------------
G---|--------------0--2-----0--0--|-------------------------------------
D---|--3--2--3--0--------3--------|-------------------------------------

Thats It!
Enjoy!
comments
We did not receive enough feedback on this tab! Please rate:
1 2 3 4 5
I want to post or [tab]
guest
You may want to rate the tab now too:
select rating
Please do not post tabs as comments. Select "correction" instead!