Oops, an error
Loading. Please wait.

Where Eagles Dare Bass Tab

320 views 1 this week
no commentswrite comment
1 2 3 4 5
excellent!
x 1
Autoscroll
+/-
esc
set tempo
stop
Contributor
Difficulty
advanced
WARNING: You are trying to view
                                    content from Ultimate-Guitar.com
                                    in an unauthorized application,
                                    which is prohibited.

                                    Please use an official Ultimate
                                    Guitar Tabs application for iPhone,
                                    iPad or Android to access legitimate
                                    chords, guitar, bass, and drum tabs
                                    from Ultimate-Guitar.com database.

                                    Type "ultimate guitar tabs" in Apple
                                    App Store's or Android Market's
                                    search to find the application.
Where Eagles Dare ( Harris )
Covered by Fozzy on the album "Happenstance"

-------------|---------------------------------------------------------------|
-------------|.--------------------------------------------------------------|
----------7-|.--------7--7---------5--5----------3-3-3-3-2--------------7-7--|
-------------|--0-0-0--------0-0-0---------0-0-0-------------3----0-0-0------|
 Drum Intro


-------------------------------------|--------------------------------------|
------------------------------------.|--------------------------------------|
--------5--5----------3-3-3-3-2-----.|--2--2--2-2-2--2--2-2--3--3--3-3-3--3-|
-0-0-0---------0-0-0-------------3---|--------------------------------------|

-----------------------------------------------------------------------------|
--------------------------->->->-->->->--------------------------------------|
-3-3--2--2--2-2-2--2--2-2--3-3-3--5-5-5--------------7--7----------5--5------|
----------------------------------------------0-0-0---------0-0-0------0-0-0-|

----------------------------------------------------------------------------|
----------------------------------------------------------------------------|
--3-3-3-3-2--------------7--7---------5--5---------3-3-3-3-2----------7--7--|
-------------3----0-0-0--------0-0-0--------0-0-0------------3--0-0-0-------|

----------------------------------------------------------------------------|
----------------------------------------------------------------------------|
--------5--5---------3-3-3-3-2--------------------.-->->---------------3-2--|
-0-0-0--------0-0-0-------------3----0-0-0-0-0-0--3--5-5--0-0-0-0-0-0-----3-|

----------------------------------------------------------------------------|
----------------------------------------------------------------------------|
--------7--7---------5--5---------3-3-3-3-2-------------------.-->->--------|
-0-0-0--------0-0-0--------0-0-0------------3----0-0-0-0-0-0--3--5-5--0-0-0-|

----------------------------------------------------------------------------|
-----------------------------------------------------------2----------------|
--------3-2-----2--2-2-2-2--2--2-2-2-2--2--2-2-2-2---3--5-----5--5-5-5-5--5-|
-0-0-0------3---------------------------------------------------------------|

----------------------------------------------------------------------------|
-------------------------------------------------------------------------2--|
-5-5-5-5--5--5-5-5-5--2--3--5--3--3-3-3-3--3--3-3-3-3--3--3-3-3-3--3--5-----|
----------------------------------------------------------------------------|

----------------------------------------------------------------------------|
---------------------------------------------------->-->--------------------|
--5--5-5-5-5--5--5-5-5-5---2--2-2-2-2--2--2-2-2-2---3--5------------7--7----|
-------------------------------------------------------------0-0-0--------0-|

-----------------------------------------------------------------------------|
-----------------------------------------------------------------------------|
-------5--5----------3-3-3-3-2-------------------.-->->----------------3-2---|
--0-0---------0-0-0-------------3---0-0-0-0-0-0--3--5-5---0-0-0-0-0-0------3-|

-----------------------------------------------------------------------------|
-----------------------------------------------------------------------------|
--------7--7---------5--5--------3-3-3-3-2------------------.-->->-----------|
0-0-0--------0-0-0--------0-0-0-----------3---0-0-0-0-0-0--3--5-5--0-0-0-0-0-|

-----------------------------------------------------------------------------|
-----------------------------------------------------2-----------------------|
----3-2----2--2-2-2-2--2--2-2-2-2--2--2-2-2-2---3--5-----5--5-5-5-5--5---5-5-|
-0------3--------------------------------------------------------------------|

-----------------------------------------------------------------------------|
-----------------------------------------------------------------------------|
--5-5--5---5--5-5-5-5---2--2-2-2-2--2--2-2-2-2---3--5---7-7-7-7--------------|
------------------------------------------------------------------0-0-0-0-0--|

-----------------------------------------------------------------------------|
-----------------------------------------------------------------------------|
-7-7-7-7--5-5-5-5-5-5--7-7-7-7-------------7-7-7-7--5-5-5-7-7-7--5-5-5-5-----|
---------------------------------0-0-0-0-0-----------------------------------|

-----------------------------------------------------------------------------|
-----------------------------------------------------------------------------|
-------------5-5-5-5---------5-5-5--7-7-7-7-------------7-7-7-7--5-5-5-5-55--|
--0-0-0-0-0-----------7-7-7-------------------0-0-0-0-0----------------------|

-----------------------------------------------------------------------------|
-----------------------------------------------------------------------------|
-7-7-7-7-------------7-7-7-7--5-5-5-5-5-5--7-7-7-7-------------7-7-7-7--5----|
-----------0-0-0-0-0----------------------------------0-0-0-0-0--------------|

-----------------------------------------------------------------------------|
-----------------------------------------------------------------------------|
-5-7-7-7---5-5-5-5-------------5-5-5-5---------5-5-5--7-7-7-7----------------|
---------------------0-0-0-0-0-----------7-7-7--------------------0-0-0-0-0--|

-----------------------------------------------------------------------------|
-----------------------------------------------------------------------------|
-7-7-7-7--5-5-5-5-5-5---7-7-7-7--------------7-7-7-7--5-5-5-5-5-5--7-7-7-7---|
-----------------------------------0-0-0-0-0---------------------------------|
                        Guitar 2
                        harmonizes


-----------------------------------------------------------------------------|
-----------------------------------------------------------------------------|
------------7-7-7-7--5-5-5-7-7-7--5-5-5-5-------------0-5-5-5---------5-5-5--|
-0-0-0-0-0----------------------------------0-0-0-0-0-----------7-7-7--------|

-----------------------------------------------------------------------------|
-----------------------------------------------------------------------------|
-7-7-7-7-------------7-7-7-7--5-5-5-5-5-5--7-7-7-7--------------7-7-7-7------|
-----------0-0-0-0-0-----------------------------------0-0-0-0-0-------------|

-----------------------------------------------------------------------------|
-----------------------------------------------------------------------------|
-5-5-5-5-5-5--7-7-7-7-------------7-7-7--5-5-5-7-7-7--5-5-5-5----------------|
------------------------0-0-0-0-0--------------------------------0-0-0-0-0---|

-----------------------------------------------------------------------------|
-----------------------------------------------------------------------------|
-5-5-5-5---------5-5-5--7-7-7-7-------------0-7-7-7--5-5-5-5--.--------------|
----------7-7-7-------------------0-0-0-0-0---------------------0--0-0-0-0-0-|
                                                                Solo part


-----------------------------------------------------------------------------|
-----------------------------------------------------------------------------|
---------.-----------.--->-->----------.----------.----------.--->--.--------|
-0-0-0-0-0---0-0-0-0-0---0--3--3-3-3-3-3--3-3-3-3-3--3-3-3-3-3---3--0--0-0-0-|

----------------------------------------------------------------------------|
----------------------------------------------------------------------------|
---.-----------.----------.--->-->----------.----------->-->-->-->-->-->----|
-0-0---0-0-0-0-0--0-0-0-0-0---0--3--3-3-3-3-3---333--0--3--3--3--3--3--3----|

-----------------------------------------------------------------------------|
-----------------------------------------------------------------------------|
-.----------.----------.-----------.--->-->----------.----------.---------.--|
-0--0-0-0-0-0--0-0-0-0-0---0-0-0-0-0---0--3--3-3-3-3-3--3-3-3-3-3--3-3-3-3-3-|

----------------------------------------------------------------------------|
----------------------------------------------------------------------------|
->--.----------.----------.----------.--->-->----------.-----------.--------|
-3--0--0-0-0-0-0--0-0-0-0-0--0-0-0-0-0---0--3--3-3-3-3-3---3-3-3-3-3--3-3-3-|

-----------------------------------------------------------------------------|
-----------------------------------------------------------------------------|
-.----------------.-----------.-----------.------>----------.----------.-----|
-3--5--0--0-0-0-0-0---0-0-0-0-0---0-0-0-0-0---0--3--3-3-3-3-3--3-3-3-3-3--33-|

-----------------------------------------------------------------------------|
-----------------------------------------------------------------------------|
-----.--->-->-----------.----------.----------.--->-->----------.------------|
-3-3-3---3--0---0-0-0-0-0--0-0-0-0-0--0-0-0-0-0---0--3--3-3-3-3-3--3-3-3-3-3-|

-----------------------------------------------------------------------------|
-----------------------------------------------------------------------------|
---------.--->-->----------.----------.----------.-->-->----------.----------|
-3-3-3-3-3---3--0--0-0-0-0-0--0-0-0-0-0--0-0-0-0-0--0--3--3-3-3-3-3--3-3-3-3-|
                Dual Guitar


-----------------------------------------------------------------------------|
-----------------------------------------------------------------------------|
-.----------.-->-->----------.----------.----------.-->-->----------.--------|
-3--3-3-3-3-3--3--0--0-0-0-0-0--0-0-0-0-0--0-0-0-0-0--0--3--3-3-3-3-3--3-33--|

----------------------------9-9--9-9-9--9-9-9--9-9-9--9-9-9--9-9-9--9-9------|
-----------------------------------------------------------------------------|
---.----------.-----.-----7--------------------------------------------------|
-3-3--3-3-3-3-3--3--0---0-----------------------------------------------10-0-|

-12-12-12--12-12-12--12-12-12--12-12-12--12-12-12--12-12-12--12-12--------99-|
-----------------------------------------------------------------------------|
------------------------------------------------------------------------7----|
--------------------------------------------------------------------0--0-----|

-9-9-9--9-9-9--9-9-9--9-9-9--9-9-9--9-9-----------12-12--12-12-12--12-12-12-|
----------------------------------------------------------------------------|
----------------------------------------------10----------------------------|
----------------------------------------10--0-------------------------------|

-14-14-14--14-14-14--14-14-14--14--------------------------------------------|
--------------------------------------.--.--5------.-----5------.-----5------|
--------------------------------------7--7-----7-7-7--7-----7-7-7--7-----7-7-|
-----------------------------------------------------------------------------|

---------->------------------------------------------------------->----------|
--7-------5--.---.---5------.-------5------.------5-------7-------5--.--.--5-|
-----7-7-----7---7------7-7-7---7------7-7-7---7-----7-7-----7-7-----7--7----|
-----------------------------------------------------------------------------|

----------------------------------------->----------------------------------|
------.-----5------.-----5-------7-------5--.--.--5------.------5------.----|
--7-7-7--7-----7-7-7--7-----7-7-----7-7-----7--7-----7-7-7---7-----7-7-7--7-|
----------------------------------------------------------------------------|

------------------>-------------------------------------------------------14-|
--5-------7-------5--.--.----------.-------------.----------------------11---|
-----7-7-----7-7-----9--9--12--9-9-9--9--12--9-9-9--9--12--9-9--12--14-------|
-----------------------------------------------------------------------------|

-------------------------------------------------------------------11--------|
--11--------.--.----------.-------------.----------------------11------11----|
-----14----9--9--12--9-9-9--9--12--9-9-9--9--12--9-9--12--14--------------14-|
-----------------------------------------------------------------------------|

------------------------------------------------------>---------------------|
--.--.--5------.------5------.-------5--------7-------5--.---.--5-----.-----|
--7--7-----7-7-7---7-----7-7-7---7-------7-7-----7-7-----7---7----7-7-7--7--|
----------------------------------------------------------------------------|

------------------------------>----------------------------------------------|
-5-----.-----5-------7--------5----------------------------------------------|
---7-7-7--7-----7-7-----7-7---------7-7-7-7----------.---7-7-7-7--5-5-5-5-5--|
----------------------------------------------0-0-0-0-0----------------------|


-----------------------------------------------------------------------------|
-----------------------------------------------------------------------------|
--5--7-7-7-7-----------.---7-7-7-7--5-5-5-7-7-7--5-5-5-5----------.--5-5-5---|
----------------0-0-0-0-0-----------------------------------0-0-0-0-0--------|

-----------------------------------------------------------------------------|
-----------------------------------------------------------------------------|
--5---------5-5-5--7-7-7-7-----------.---7-7-7-7--5-5-5-5-5-5--7-7-7-7-------|
-----7-7-7--------------------0-0-0-0-0--------------------------------------|

-----------------------------------------------------------------------------|
-----------------------------------------------------------------------------|
----------.---7-7-7-7--5-5-5-5-5-5--7-7-7-7-------------7-7-7-7--5-5-5-7-77--|
--0-0-0-0-0-----------------------------------0-0-0-0-0----------------------|

-----------------------------------------------------------------------------|
-----------------------------------------------------------------------------|
--5-5-5-5-----------.---5-5-5-5---------5-5-5--7-7-7-7----------.---7-7-7----|
-------------0-0-0-0-0------------7-7-7-------------------0-0-0-0-0----------|

-----------------------------------------------------------------------------|
-----------------------------------------------------------------------------|
--5-5-5-5-5-5--7-7-7-7----------.--7-7-7-7--5-5-5-5-5-5--7-7-7-7-------------|
-------------------------0-0-0-0-0----------------------------------0-0-0-00-|
               Guitar 2
              doubles up


-----------------------------------------------------------------------------|
-----------------------------------------------------------------------------|
--7-7-7-7--5-5-5-7-7-7--5-5-5-5----------.---5-5-5-5---------5-5-5--7-7-7-7--|
----------------------------------0-0-0-0-0------------7-7-7-----------------|

-----------------------------------------------------------------------------|
-----------------------------------------------------------------------------|
---------.---7-7-7-7--5-5-5-5-5-5--7-7-7-7----------.--7-7-7-7--5-5-5-5-5-5--|
-0-0-0-0-0-----------------------------------0-0-0-0-0-----------------------|
                                   Guitar 1
                                    enters


-----------------------------------------------------------------------------|
-----------------------------------------------------------------------------|
--7-7-7-7----------.---7-7-7-7--5-5-5-7-7-7--5-5-5-5----------.---5-5-5-5----|
------------0-0-0-0-0-----------------------------------0-0-0-0-0------------|

-----------------------------------------------------------------------------|
-----------------------------------------------------------------------------|
---------5-5-5--7-7-7-7----------.---7-7-7-7--5-5-5-5----------7--7----------|
--7-7-7-------------------0-0-0-0-0-----------------------0-0-0---------0-00-|

-----------------------------------------------------------------------------|
-----------------------------------------------------------------------------|
--5--5-----------3-3-3-3-2------------7---7----------5--5----------3-3-3-3-2-|
---------0-0-0-------------3---0-0-0----------0-0-0---------0-0-0------------|

-----------------------------------------------------------------------------|
-----------------------------------------------------------------------------|
------------7--7----------5--5-----------3-3-3-3-2------------7--7---------5-|
-3---0-0-0---------0-0-0---------0-0-0-------------3---0-0-0--------0-0-0----|

-----------------------------------------------------------------------------|
-----------------------------------------------------------------------------|
-5---------3-3-3-3-2-----2--2--2-2-2--2--2-2--3--3--3-3-3--3-3-3--2--2--2-22-|
----0-0-0------------3-------------------------------------------------------|
-----------------------------------------------------------------------------|
---------->->->-->->->-------------------------------------------------------|
--2--2-2--3-3-3--5-5-5----------7--7----------5--5----------3-3-3-3-2--------|
-------------------------0-0-0---------0-0-0---------0-0-0------------3---00-|

----------------------------------------------------------------------------|
----------------------------------------------------------------------------|
----------.-->->-----------------3--2-------------7--7---------5--5---------|
-0-0-0-0--3--5-5---0-0-0-0-0-0---------3---0-0-0---------0-0-0-------0-0-0--|

-----------------------------------------------------------------------------|
-----------------------------------------------------------------------------|
--3-3-3-3-2-------------------.-->->---------------3--2-----2--2-2-2-2--2--2-|
-------------3---0-0-0-0-0-0--3--5-5--0-0-0-0-0-0--------3-------------------|

-----------------------------------------------------------------------------|
----------------------------2------------------------------------------------|
--2-2-2--2--2-2-2-2---3--5-----5--5-5-5-5--5-5-5-5-5--5--5-5-5-5--2--3--5--3-|
-----------------------------------------------------------------------------|

-----------------------------------------------------------------------------|
----------------------------------------2------------------------------------|
3-3-3-3--3--3-3-3-3--3--3-3-3-3--3--5-----5--5-5-5-5--5--5-5-5-5--2--2-2-2-2-|
-----------------------------------------------------------------------------|

-----------------------------------------------------------------------------|
--------------->-->----------------------------------------------------------|
--2--2-2-2-2---3--5-----------7--7----------5--5----------3-3-3-3-2----------|
----------------------0-0-0---------0-0-0---------0-0-0------------3---0-0-0-|

-----------------------------------------------------------------------------|
-----------------------------------------------------------------------------|
--------.-->->---------------3-2-------------7--7----------5--5----------3-3-|
-0-0-0--3--5-5--0-0-0-0-0-0-------3---0-0-0---------0-0-0---------0-0-0------|

----------------------------------------------------------------------------|
----------------------------------------------------------------------------|
-3-3-2--------------------.-->->---------------3-2-------2--2-2-2-2--2--2---|
--------3---0-0-0-0-0-0---3--5-5--0-0-0-0-0-0-------3-----------------------|

-----------------------------------------------------------------------------|
--------------------------2--------------------------------------------------|
2-2-2--2--2-2-2-2---3--5-----5--5-5-5-5--5-5-5-5-5--5--5-5-5-5--2--3--5--3---|
-----------------------------------------------------------------------------|

-----------------------------------------------------------------------------|
----------------------------------------2------------------------------------|
3-3-3-3--3--3-3-3-3--3--3-3-3-3--3--5-----5--5-5-5-5--5--5-5-5-5--2--2-2-2-2-|
-----------------------------------------------------------------------------|

-----------------------------------------------------------------------------|
--------------->-->----------------------------------------------------------|
--2--2-2-2-2---3--5-----------7--7----------5--5----------3-3-3-3-2----------|
-----------------------0-0-0---------0-0-0---------0-0-0------------3---0--0-|

----------------------------------------------------------------------------|
----------------------------------------------------------------------------|
--7--7-----------5--5-----------3-3-3-3-2--------------7--7---------5--5----|
---------0-0-0----------0-0-0--------------3----0-0-0---------0-0-0-------0-|

----------------------------------------------------------------------------|
----------------------------------------------------------------------------|
-------3-3-3-3-2-------------7--7-----------5--5----------3-3-3-3-2---------|
--0-0-------------3---0-0-0---------0-0-0----------0-0-0------------3-------|

-----------------------------------------------------------------------------|
---------------------------------------------------------------->->->-->->---|
--2--2--2-2-2--2--2-2--3--3--3-3-3--3-3-3--2--2--2-2-2--2--2-2--3-3-3--5-5-5-|
-----------------------------------------------------------------------------|
                                                             Ritard.

--------------------9999999---97----97---97---------------------------------|
---------------999---------------9-----9----9--9--7-------------------------|
--777-7-7-7777----------------------------------------9---7-----------------|
-------------------------------------------------------------9--7--00000000-|

-------------------------------------------------|
-------------------------------------------------|
--------------------------------------7-7-7-7----|
-0000000000000000000000000000000-----------------|
comments
We did not receive enough feedback on this tab! Please rate:
1 2 3 4 5
I want to post or [tab]
guest
You may want to rate the tab now too:
select rating
Please do not post tabs as comments. Select "correction" instead!