Oops, an error
Loading. Please wait.

Where Eagles Dare Tab

751 views 1 this week
3 commentsread comments
1 2 3 4 5
excellent!
x 2
Autoscroll
+/-
esc
set tempo
stop
WARNING: You are trying to view
                                    content from Ultimate-Guitar.com
                                    in an unauthorized application,
                                    which is prohibited.

                                    Please use an official Ultimate
                                    Guitar Tabs application for iPhone,
                                    iPad or Android to access legitimate
                                    chords, guitar, bass, and drum tabs
                                    from Ultimate-Guitar.com database.

                                    Type "ultimate guitar tabs" in Apple
                                    App Store's or Android Market's
                                    search to find the application.
Artist: Fozzy
Title: Where Eagles Dare
Album: Happenstance
Originally performed by: Iron Maiden, from the album "Piece of Mind"
Tabbed by: Journey manII
E-mail: gillian.cairns@btinternet.com

TUNING (low to high): EADGBE

LEGEND:
PM= Palm mute
~ = Vibrato
/ = Slide up
\ = Slide down
o = The section between the two pairs of o's is repeated.
    The section is played the number of times stated above the tab lines.
b = Bend
br= Bend and Release
* = Pinch harmonic
tr.~~~ = Trill
\/ = Tremelo bar
[] = Note inside brackets is a Natural harmonic

INTRO:                                                 4x
|--------------------------------------------------------|
|--------------------------------------------------------|
|o------------------------------------------------------o|
|o-------9--9----------7--7----------5--5---5-5-5-------o|
|--------7--7----------5--5----------3--3---3-3-3-3-2-0--|
|--0-0-0---------0-0-0---------0-0-0---------------------|
PM . . .         . . .         . . .

|-------------------------------------------|
|-------------------------------------------|
|-------------------------------------------|
|--4--------4------------5--------5---------|
|--2--2-2-2-2--2-2-2-----3--3-3-3-3--3-3-3--|
|-------------------------------------------|
PM    . . .    . . .        . . .    . . .

|------------------------------------------|
|------------------------------------------|
|------------------------------------------|
|--4--------4------------5--5--5--7--7--7--|
|--2--2-2-2-2--2-2-2-----3--3--3--5--5--5--|
|------------------------------------------|
PM    . . .    . . .
[End Intro]

INTRO CONT.:
Gtr 1:
|--------------------------------------------------------|
|--------------------------------------------------------|
|--------------------------------------------------------|
|--------9--9----------7--7----------5--5---5-5-5--------|
|--------7--7----------5--5----------3--3---3-3-3-3-2-0--|
|--0-0-0---------0-0-0---------0-0-0---------------------|
PM . . .         . . .         . . .
Gtr 2:
|--------------------------------------------------------|
|------------------------------------8-8-5--8~~\---------|
|--------9--9----------7--7------------------------------|
|--------------------------------------------------------|
|--------------------------------------------------------|
|--------------------------------------------------------|

Gtr 1:
|--------------------------------------------------------|
|--------------------------------------------------------|
|--------------------------------------------------------|
|--------9--9----------7--7----------5--5---5-5-5--------|
|--------7--7----------5--5----------3--3---3-3-3-3-2-0--|
|--0-0-0---------0-0-0---------0-0-0---------------------|
PM . . .         . . .         . . .
Gtr 2:
|--------------------------------------------------------|
|--------------------------------------------------------|
|--------9--9----------7--7----------5--5---5-5-5-5-4----|
|-----------------------------------------------------5--|
|--------------------------------------------------------|
|--------------------------------------------------------|
[End Intro Cont.]

VERSE:
Gtr 1:
|--------------------------------------------------------|
|--------------------------------------------------------|
|--------------------------------------------------------|
|--------9--9----------7--7----------5--5---5-5-5--------|
|--------7--7----------5--5----------3--3---3-3-3-3-2-0--|
|--0-0-0---------0-0-0---------0-0-0---------------------|
PM . . .         . . .         . . .
Gtr 2: (First time only)
|--------------------------------------------------------|
|--------------------------------------------------------|
|--9~~---------------------------------------------------|
|--------------------------------------------------------|
|--------------------------------------------------------|
|--------------------------------------------------------|

|----------------------------------------------|
|----------------------------------------------|
|----------------------------------------------|
|-------------------------------------5--4-----|
|--------------5--7--7----------------3--2--5--|
|--0-0-0-0-0-0-3--5--5----0-0-0-0-0-0-------3--|
PM . . . . . .            . . . . . .

|--------------------------------------------------------|
|--------------------------------------------------------|
|o-------------------------------------------------------|
|o-------9--9----------7--7----------5--5---5-5-5--------|
|--------7--7----------5--5----------3--3---3-3-3-3-2-0--|
|--0-0-0---------0-0-0---------0-0-0---------------------|
PM . . .         . . .         . . .

|----------------------------------------------|
|----------------------------------------------|
|----------------------------------------------|
|-------------------------------------5--4-----|
|--------------5--7--7----------------3--2--5--|
|--0-0-0-0-0-0-3--5--5----0-0-0-0-0-0-------3--|
PM . . . . . .            . . . . . .

|-----------------------------------------|
|-----------------------------------------|
|-----------------------------------------|
|--5---------5---------5---------5--7--9--|
|--3-3-3-3-3-3-3-3-3-3-3-3-3-3-3-3--5--7--|
|-----------------------------------------|
PM   . . . .   . . . .   . . . .

|-----------------------------------------|
|-----------------------------------------|
|-----------------------------------------|
|--7---------7---------7---------4--5--7--|
|--5-5-5-5-5-5-5-5-5-5-5-5-5-5-5-2--3--5--|
|-----------------------------------------|
PM   . . . .   . . . .   . . . .

|-----------------------------------------|
|-----------------------------------------|
|-----------------------------------------|
|--5---------5---------5---------5--7--9--|
|--3-3-3-3-3-3-3-3-3-3-3-3-3-3-3-3--5--7--|
|-----------------------------------------|
PM   . . . .   . . . .   . . . .

|-----------------------------------|
|-----------------------------------|
|-----------------------------------|
|--7---------7----------4-----5--7--|
|--5-5-5-5-5-5-5-5-5-5--2-----3--5--|
|-----------------------------------|
PM   . . . .   . . . .
[End Verse]

INTERLUDE:
|-------------------------------------------|
|-------------------------------------------|
|-------------------------------------------|
|--9-9-9-9-------------9-9-9-9-7-7-7-7-7-7--|
|--7-7-7-7-------------7-7-7-7-5-5-5-5-5-5--|
|-----------0-0-0-0-0-----------------------|

|-------------------------------------------|
|-------------------------------------------|
|-------------------------------------------|
|--9-9-9-9-------------9-9-9-9-7-7-7-9-9-9--|
|--7-7-7-7-------------7-7-7-7-5-5-5-7-7-7--|
|-----------0-0-0-0-0-----------------------|

|-------------------------------------------|
|-------------------------------------------|
|-------------------------------------------|
|--7-7-7-7-------------7-7-7-7-4-4-4-7-7-7--|
|--5-5-5-5-------------5-5-5-5-2-2-2-5-5-5--|
|-----------0-0-0-0-0-----------------------|

|-------------------------------------------|
|-------------------------------------------|
|-------------------------------------------|
|--9-9-9-9-------------9-9-9-9-7-7-7-7-7-7--|
|--7-7-7-7-------------7-7-7-7-5-5-5-5-5-5--|
|-----------0-0-0-0-0-----------------------|
[End Interlude]

INTERLUDE W/ LEAD GUITAR:
Gtr 1:
|-------------------------------------------------------|
|-------------------------------------------------------|
|-------------------------------------------------------|
|--9--9--9--9-------------9--9--9--9--7--7--7--7--7--7--|
|--7--7--7--7-------------7--7--7--7--5--5--5--5--5--5--|
|--------------0-0-0-0-0--------------------------------|
Gtr 2:
|-------------------------------------------------------|
|-------------------------------------------------------|
|--12-12-12-12------------12-12-12-12-11-11-11-11-11-11-|
|-------------------------------------------------------|
|-------------------------------------------------------|
|-------------------------------------------------------|

Gtr 1:
|-------------------------------------------------------|
|-------------------------------------------------------|
|-------------------------------------------------------|
|--9--9--9--9-------------9--9--9--9--7--7--7--9--9--9--|
|--7--7--7--7-------------7--7--7--7--5--5--5--7--7--7--|
|--------------0-0-0-0-0--------------------------------|
Gtr 2:
|-------------------------------------------------------|
|-------------------------------------------------------|
|--12-12-12-12------------12-12-12-12-11-11-11-12-12-12-|
|-------------------------------------------------------|
|-------------------------------------------------------|
|-------------------------------------------------------|

Gtr 1:
|-------------------------------------------------------|
|-------------------------------------------------------|
|-------------------------------------------------------|
|--7--7--7--7-------------7--7--7--7--4--4--4--7--7--7--|
|--5--5--5--5-------------5--5--5--5--2--2--2--5--5--5--|
|--------------0-0-0-0-0--------------------------------|
Gtr 2:
|-------------------------------------------------------|
|-------------------------------------------------------|
|--11-11-11-11------------11-11-11-11-7--7--7--11-11-11-|
|-------------------------------------------------------|
|-------------------------------------------------------|
|-------------------------------------------------------|

Gtr 1:
|-------------------------------------------------------|
|-------------------------------------------------------|
|-------------------------------------------------------|
|--9--9--9--9-------------9--9--9--9--7--7--7--7--7--7--|
|--7--7--7--7-------------7--7--7--7--5--5--5--5--5--5--|
|--------------0-0-0-0-0--------------------------------|
Gtr 2:
|-------------------------------------------------------|
|-------------------------------------------------------|
|--12-12-12-12------------12-12-12-12-11-11-11-11-11-11-|
|-------------------------------------------------------|
|-------------------------------------------------------|
|-------------------------------------------------------|

Gtr 1:
|-------------------------------------------------------|
|-------------------------------------------------------|
|-------------------------------------------------------|
|--9--9--9--9-------------9--9--9--9--7--7--7--7--7--7--|
|--7--7--7--7-------------7--7--7--7--5--5--5--5--5--5--|
|--------------0-0-0-0-0--------------------------------|
Gtr 2:
|-------------------------------------------------------|
|--12-12-12-12------------12-12-12-12-10-10-10-10-10-10-|
|-------------------------------------------------------|
|-------------------------------------------------------|
|-------------------------------------------------------|
|-------------------------------------------------------|

Gtr 1:
|-------------------------------------------------------|
|-------------------------------------------------------|
|-------------------------------------------------------|
|--9--9--9--9-------------9--9--9--9--7--7--7--9--9--9--|
|--7--7--7--7-------------7--7--7--7--5--5--5--7--7--7--|
|--------------0-0-0-0-0--------------------------------|
Gtr 2:
|-------------------------------------------------------|
|--12-12-12-12------------12-12-12-12-10-10-10-12-12-12-|
|-------------------------------------------------------|
|-------------------------------------------------------|
|-------------------------------------------------------|
|-------------------------------------------------------|

Gtr 1:
|-------------------------------------------------------|
|-------------------------------------------------------|
|-------------------------------------------------------|
|--7--7--7--7-------------7--7--7--7--4--4--4--7--7--7--|
|--5--5--5--5-------------5--5--5--5--2--2--2--5--5--5--|
|--------------0-0-0-0-0--------------------------------|
Gtr 2:
|-------------------------------------------------------|
|--10-10-10-10------------10-10-10-10-7--7--7--10-10-10-|
|-------------------------------------------------------|
|-------------------------------------------------------|
|-------------------------------------------------------|
|-------------------------------------------------------|

Gtr 1:
|-------------------------------------------------------|
|-------------------------------------------------------|
|-------------------------------------------------------|
|--9--9--9--9-------------9--9--9--9--7--7--7--7--7--7--|
|--7--7--7--7-------------7--7--7--7--5--5--5--5--5--5--|
|--------------0-0-0-0-0--------------------------------|
Gtr 2:
|-------------------------------------------------------|
|--12-12-12-12------------12-12-12-12-10-10-10-10-10-10-|
|-------------------------------------------------------|
|-------------------------------------------------------|
|-------------------------------------------------------|
|-------------------------------------------------------|
[End Interlude w/ Lead Guitar]


Solo Rhythm (Gtr 1):
|---------------------------------------------|
|---------------------------------------------|
|---------------------------------------------|
|--2----------------------5-------------------|
|--2----------------------5-------------------|
|--0----------------------3-------------------|
[End Solo Rhythm]

Guitar Solo (Gtr 2):
|-------------------------------------------------------|
|--------------------------15--15-\/\/\/\/--------------|
|--2br------------------------[12]\/\/\/\/--------------|
|-------------------------------------------------------|
|-------------------------------------------------------|
|-------------------------------------------------------|

|-------------------------15br-----17b-17br\--12-15-12-15-12-|
|----------------15br-12-------------------------------------|
|--14--14br-12~----------------------------------------------|
|------------------------------------------------------------|
|------------------------------------------------------------|
|------------------------------------------------------------|

|-----------------------------------------------------------------|
|--12(15)tr.~~~---------------------------------------------------|
|----------------14-12-14-12-14-12-14-12-14-12-14-----------------|
|-------------------------------------------------12-14-12-14-12--|
|-----------------------------------------------------------------|
|-----------------------------------------------------------------|

|---------------15br~~~------------------|
|----------------------------------------|
|--14br\------------------14br--14-12~~--|
|----------------------------------------|
|----------------------------------------|
|----------------------------------------|

|--12\/\/---------------------------------------------|
|---------------12~~----------------------------------|
|---------14~~-------12\/\/---------------------------|
|----------------------------14-12-14\/-12\/----------|
|--------------------------------------------14-10\/--|
|-----------------------------------------------------|

|-------------------------------------------------------|
|-------------------------------------------------------|
|-------------------------------------------------------|
|-------------------------------------------------------|
|--12(14)tr.~~~--10(12)tr.~~~--9(10)tr.~~~--------------|
|-------------------------------------------0\/---------|
                                             *Dive and slowly release*

|-------------------------------|
|---------------------*---*-----|
|--------------------14b-14br\--|
|--14~~-14~~--14br12------------|
|-------------------------------|
|-------------------------------|

Gtr 2:
|------------------------------------------------------|
|--17--15--12------------------------------------------|
|---------------14--12--11--12~~-----------------------|
|------------------------------------------------------|
|------------------------------------------------------|
|------------------------------------------------------|
Gtr 3:
|------------------------------------------------------|
|--12--10----------------------------------------------|
|-----------12--11--9--7--9~~--------------------------|
|------------------------------------------------------|
|------------------------------------------------------|
|------------------------------------------------------|

Gtr 2:
|------------------------------------------------------|
|--17--15--12------------------------------------------|
|---------------14--12--11--12~~-----------------------|
|------------------------------------------------------|
|------------------------------------------------------|
|------------------------------------------------------|
Gtr 3:
|------------------------------------------------------|
|--12--10----------------------------------------------|
|-----------12--11--9--7--9~~--------------------------|
|------------------------------------------------------|
|------------------------------------------------------|
|------------------------------------------------------|

Gtr 2:
|---------------------------------------------------------|
|--8-7---7-------8-7---7-------8-7---7-------8-7---7------|
|------9---9-7-------9---9-7-------9---9-7-------9---9-7--|
|---------------------------------------------------------|
|---------------------------------------------------------|
|---------------------------------------------------------|
Gtr 3:
|---------------------------------------------------------|
|---------------------------------------------------------|
|--9-7---7-------9-7---7-------9-7---7-------9-7---7------|
|------9---9-7-------9---9-7-------9---9-7-------9---9-7--|
|---------------------------------------------------------|
|---------------------------------------------------------|

Gtr 2:
|---------------------------------------------------------------------------------|
|--12-10----10---------12-10----10---------12-10----10---------12-10----10--------|
|--------12----12-11---------12----12-11---------12----12-11---------12----12-11--|
|---------------------------------------------------------------------------------|
|---------------------------------------------------------------------------------|
|---------------------------------------------------------------------------------|
Gtr 3:
|---------------------------------------------------------------------------------|
|---------------------------------------------------------------------------------|
|--12--9-----9---------12--9-----9---------12--9-----9---------12--9-----9--------|
|--------12----12--9---------12----12--9---------12----12--9---------12----12--9--|
|---------------------------------------------------------------------------------|
|---------------------------------------------------------------------------------|

Gtr 2:
|---------------------------------------------------------|
|--8-7---7-------8-7---7-------8-7---7-------8-7---7------|
|------9---9-7-------9---9-7-------9---9-7-------9---9-7--|
|---------------------------------------------------------|
|---------------------------------------------------------|
|---------------------------------------------------------|
Gtr 3:
|---------------------------------------------------------|
|---------------------------------------------------------|
|--9-7---7-------9-7---7-------9-7---7-------9-7---7------|
|------9---9-7-------9---9-7-------9---9-7-------9---9-7--|
|---------------------------------------------------------|
|---------------------------------------------------------|

Gtr 2:
|---------------------------------------------------------------------------------|
|--12-10----10---------12-10----10---------12-10----10---------12-10----10--------|
|--------12----12-11---------12----12-11---------12----12-11---------12----12-11--|
|---------------------------------------------------------------------------------|
|---------------------------------------------------------------------------------|
|---------------------------------------------------------------------------------|
Gtr 3:
|---------------------------------------------------------------------------------|
|---------------------------------------------------------------------------------|
|--12--9-----9---------12--9-----9---------12--9-----9---------12--9-----9--------|
|--------12----12--9---------12----12--9---------12----12--9---------12----12--9--|
|---------------------------------------------------------------------------------|
|---------------------------------------------------------------------------------|
[End Guitar Solo]

INTERLUDE 2:
E---------------------------------------------|
B---------------------------------------------|
G---------------------------------------------|
D---------------------------------------------|
A---------------------------------------------|
E--0--0-3-0-0-0--0-3-0-0-0--0-3-0-0-5--0-3-0--|
PM .  . . . . .  . . . . .  . . . . .  . . .

E---------------------------------------------|
B---------------------------------------------|
G---------------------------------------------|
D---------------------------------------------|
A---------------------------------------------|
E--0--0-3-0-0-0--0-3-0-0-0--0-3-0-0-5--0-3-0--|
PM .  . . . . .  . . . . .  . . . . .  . . .

E---------------------------------------------|
B---------------------------------------------|
G---------------------------------------------|
D---------------------------------------------|
A---------------------------------------------|
E--0--0-3-0-0-0--0-3-0-0-0--0-3-0-0-5--0-3-0--|
PM .  . . . . .  . . . . .  . . . . .  . . .

E---------------------------------------------|
B---------------------------------------------|
G---------------------------------------------|
D---------------------------------------------|
A---------------------------------------------|
E--0--0-3-0-0-0--0-3-0-0-0--0-3-0-0-5--0-3-2--|
PM .  . . . . .  . . . . .  . . . . .  . . .

E------------------------------------------------|
B------------------------------------------------|
G------------------------------------------------|
D-----------------------------------------2------|
A-----------------------------------0-2-4---4-2--|
E--2--2-5-2-2-2--2-5-2-2-2--2-5-2-2--------------|
PM .  . . . . .  . . . . .  . . . 

E------------------------------------------------|
B------------------------------------------------|
G------------------------------------------------|
D-----------------------------------------2------|
A-----------------------------------0-2-4---4-2--|
E--2--2-5-2-2-2--2-5-2-2-2--2-5-2-2--------------|
PM .  . . . . .  . . . . .  . . . 

E---------------------------------------------|
B---------------------------------------------|
G---------------------------------------------|
D---------------------------------------------|
A---------------------------------------------|
E--0--0-3-0-0-0--0-3-0-0-0--0-3-0-0-5--0-3-0--|
PM .  . . . . .  . . . . .  . . . . .  . . .

E---------------------------------------------|
B---------------------------------------------|
G---------------------------------------------|
D---------------------------------------------|
A---------------------------------------------|
E--0--0-3-0-0-0--0-3-0-0-0--0-3-0-0-5--0-3-0--|
PM .  . . . . .  . . . . .  . . . . .  . . .
[End Interlude 2]

OUTRO:
Gtr 1:
|--------------------------------------------------------|
|--------------------------------------------------------|
|--------------------------------------------------------|
|--------9--9----------7--7----------5--5---5-5-5--------|
|--------7--7----------5--5----------3--3---3-3-3-3-2-0--|
|--0-0-0---------0-0-0---------0-0-0---------------------|
PM . . .         . . .         . . .
Gtr 2:
|--------------------------------------------------------|
|------------------------------------8-8-5--8~~\---------|
|--------9--9----------7--7------------------------------|
|--------------------------------------------------------|
|--------------------------------------------------------|
|--------------------------------------------------------|

Gtr 1:
|--------------------------------------------------------|
|--------------------------------------------------------|
|--------------------------------------------------------|
|--------9--9----------7--7----------5--5---5-5-5--------|
|--------7--7----------5--5----------3--3---3-3-3-3-2-0--|
|--0-0-0---------0-0-0---------0-0-0---------------------|
PM . . .         . . .         . . .
Gtr 2:
|--------------------------------------------------------|
|--------------------------------------------------------|
|--------9--9----------7--7----------5--5---5-5-5-5-4----|
|-----------------------------------------------------5--|
|--------------------------------------------------------|
|--------------------------------------------------------|

Gtr 1:
|--------------------------------------------------------|
|--------------------------------------------------------|
|--------------------------------------------------------|
|--------9--9----------7--7----------5--5---5-5-5--------|
|--------7--7----------5--5----------3--3---3-3-3-3-2-0--|
|--0-0-0---------0-0-0---------0-0-0---------------------|
PM . . .         . . .         . . .
Gtr 2:
|--------------------------------------------------------|
|------------------------------------8-8-5--8~~\---------|
|--------9--9----------7--7------------------------------|
|--------------------------------------------------------|
|--------------------------------------------------------|
|--------------------------------------------------------|

Gtr 1:
|--------------------------------------------------------|
|--------------------------------------------------------|
|--------------------------------------------------------|
|--------9--9----------7--7----------5--5---5-5-5--------|
|--------7--7----------5--5----------3--3---3-3-3-3-2-0--|
|--0-0-0---------0-0-0---------0-0-0---------------------|
PM . . .         . . .         . . .
Gtr 2:
|--------------------------------------------------------|
|--------------------------------------------------------|
|--------9--9----------7--7----------5--5---5-5-5-5-4----|
|-----------------------------------------------------5--|
|--------------------------------------------------------|
|--------------------------------------------------------|

|-------------------------------------------|
|-------------------------------------------|
|-------------------------------------------|
|--4--------4------------5--------5---------|
|--2--2-2-2-2--2-2-2-----3--3-3-3-3--3-3-3--|
|-------------------------------------------|
PM    . . .    . . .        . . .    . . .

|------------------------------------------|
|------------------------------------------|
|------------------------------------------|
|--4--------4------------5--5--5--7--7--7--|
|--2--2-2-2-2--2-2-2-----3--3--3--5--5--5--|
|------------------------------------------|
PM    . . .    . . .

Gtr 1:
|-------------------------------------------------------------------|
|-------------------------------------------------------------------|
|-------------------------------------------------------------------|
|--9--------9----------9--------9----------9--------9---------------|
|--7--------7----------7--------7----------7--------7---------------|
|-------------------------------------------------------------------|
Gtr 2:
|-------------------------------------------------------------------|
|-------------------------------------------------------------------|
|--------11-12-11------------11-12-11------------11-12-11-----------|
|--12-14----------14---12-14----------14---12-14----------14-12~~~--|
|-------------------------------------------------------------------|
|-------------------------------------------------------------------|
PM .  .  .  .  .  .    .  .  .  .  .  .    .  .  .  .  .  .  .

|-------------------------|
|-------------------------|
|-------------------------|
|--9----------9-9-9-9\----|
|--7----------7-7-7-7\----|
|-------------------------|
[End of Outro]

ORDER:

Drum intro
INTRO
INTRO CONT.
VERSE (2 times)
INTERLUDE
INTERLUDE w/ LEAD GUITAR
GUITAR SOLO (Played over SOLO RHYTHM)
INTERLUDE 2
INTERLUDE
INTERLUDE w/ LEAD GUITAR
INTRO *w/ lead guitar from INTRO CONT.*
VERSE (2 times)
OUTRO
comments
We did not receive enough feedback on this tab! Please rate:
print report bad tab
1 2 3 4 5
3 comments total.
0 reply
The Axeman wrote on July 1 2005, 12:00 am

the tuning is a whole step lower

0 reply
METSOAD wrote on May 4 2006, 03:47 pm

This looks good and yes it is a whole step down

0 reply
Stop Messin' wrote on May 7 2007, 06:11 pm

Love the drumming on Fozzy's version.

I want to post or [tab]
guest
You may want to rate the tab now too:
select rating
Please do not post tabs as comments. Select "correction" instead!