Oops, an error
Loading. Please wait.

You Stupid Girl Bass Tab

551 views 1 this week
no commentswrite comment
1 2 3 4 5
please rate
Autoscroll
+/-
esc
set tempo
stop
Contributor
Tuning
B F# B E G# C#
Hey! There's an official Ultimate Guitar app which is ideal
for learning songs when you're away from computer. Get the app
WARNING: You are trying to view
                                    content from Ultimate-Guitar.com
                                    in an unauthorized application,
                                    which is prohibited.

                                    Please use an official Ultimate
                                    Guitar Tabs application for iPhone,
                                    iPad or Android to access legitimate
                                    chords, guitar, bass, and drum tabs
                                    from Ultimate-Guitar.com database.

                                    Type "ultimate guitar tabs" in Apple
                                    App Store's or Android Market's
                                    search to find the application.
0:17
E |-----------------------------------------------------------------|
B |-----------------------------------------------------------------|
F#|-3-------------------------------5-------------------------------|
B |-----------------------------------------------------------------|

0:23
E |-----------------------------------------------------------------|
B |-----------------------------------------------------------------|
F#|-----------------------------------------------------------------|
B |-2---2---2---2---2---2---2---2---2---2---2---2---2---2---2---2---|

E |-----------------------------------------------------------------|
B |-----------------------------------------------------------------|
F#|-----------------------------------------------------------------|
B |-2---2---2---2---2---2---2---2---2---2---2---2---2---2---2---2---|

E |-----------------------------------------------------------------|
B |-----------------------------------------------------------------|
F#|-----------------------------------------------------------------|
B |-2---2---2---2---2---2---2---2---2---2---2---2---2---2---2---2---|

E |-----------------------------------------------------------------|
B |-----------------------------------------------------------------|
F#|-3---3---3---3---3---3---3---3---5---5---5---5---5---5---5---5---|
B |-----------------------------------------------------------------|

0:44
E |-----------------------------------------------------------------|
B |-----------------------------------------------------------------|
F#|---------------------------------------------------------3-3-3-3-|
B |-2---2---2---2---2---2---2---2---2---2---2---2---2---2-----------|

0:49
E |-------------------7-----7-7-------------------------------------|
B |-----------------------------------------------------------------|
F#|-5-----5-5---5---5-----5-------5-3-----3-3---3---3-3-3-3-3-3-3-3-|
B |-----------------------------------------------------------------|

0:55
E |---------7---7-----7-----7---------------------------------------|
B |-----------------------------------------------------------------|
F#|-5-----5---------5-----5---------3-3-3-3-3---------3-3-3-3-------|
B |-----------------------------------------------------------------|

1:00
E |-----------------------------------------------------------------|
B |-----------------------------------------------------------------|
F#|---------------------------------3-----3-3---3-------3-----------|
B |-2-----2-2---2-------2---5-5-5-5-------------------------5-5-5-5-|

E |-----------------------------------------------------------------|
B |-----------------------------------------------------------------|
F#|-----------------------------------------------------------------|
B |-0-----0-0---0-----0-0---2-2-2-2-5-5---5-5-5---5-4-4---4-4-4-4-4-|

E |-----------------------------------------------------------------|
B |-----------------------------------------------------------------|
F#|---------------------------------3-----3-3---3-------3-----------|
B |-2-----2-2---2-------2---5-5-5-5-------------------------5-5-5-5-|

E |-----------------------------------------------------------------|
B |-----------------------------------------------------------------|
F#|-----------------------------------------------------------------|
B |-0-----0-0---0-----0-0---4-5-7-4-5-5---5-5-5---5-4-4---4-4-4-4-4-|

E |-----------------------------------------------------------------|
B |-----------------------------------------------------------------|
F#|-------------3-------------------------------5-------------------|
B |-2---2---------------------------2---2---------------------------|

1:26
E |-----------------------------------------------------------------|
B |-----------------------------------------------------------------|
F#|-----------------------------------------------------------------|
B |-2---2---2---2---2---2---2---2---2---2---2---2---2---2---2---2---|

E |-----------------------------------------------------------------|
B |-----------------------------------------------------------------|
F#|-----------------------------------------------------------------|
B |-2---2---2---2---2---2---2---2---2---2---2---2---2---2---2---2---|

E |-----------------------------------------------------------------|
B |-----------------------------------------------------------------|
F#|-----------------------------------------------------------------|
B |-2---2---2---2---2---2---2---2---2---2---2---2---2---2---2---2---|

E |-----------------------------------------------------------------|
B |-----------------------------------------------------------------|
F#|-3---3---3---3---3---3---3---3---5---5---5---5---5---5---5---5---|
B |-----------------------------------------------------------------|

E |---------------------------------|
B |---------------------------------|
F#|---------------------------------|
B |-2-------------------------------|

1:50
E |-----------------------------------------------------------------|
B |-----------------------------------------------------------------|
F#|---------------------------------3-----3-3---3-------3-----------|
B |-2-----2-2---2-------2---5-5-5-5-------------------------5-5-5-5-|

E |-----------------------------------------------------------------|
B |-----------------------------------------------------------------|
F#|-----------------------------------------------------------------|
B |-0-----0-0---0-----0-0---2-2-2-2-5-5---5-5-5---5-4-4---4-4-4-4-4-|

E |-----------------------------------------------------------------|
B |-----------------------------------------------------------------|
F#|---------------------------------3-----3-3---3-------3-----------|
B |-2-----2-2---2-------2---5-5-5-5-------------------------5-5-5-5-|

E |-----------------------------------------------------------------|
B |-----------------------------------------------------------------|
F#|-----------------------------------------------------------------|
B |-0-----0-0---0-----0-0---4-5-7-4-5-5---5-5-5---5-4-4---4-4-4-4-4-|

2:11
E |-----------------------------------------------------------------|
B |-----------------------------------------------------------------|
F#|-------------3-------------------------------3-----------5-7-5-3-|
B |-2---2---------------------------2---2---------------------------|

E |-----------------------------------------------------------------|
B |-----------------------------------------------------------------|
F#|-------------3-------------------------------5-------------------|
B |-2---2---------------------------2---2---------------------------|

2:22
E |-----------------------------------------------------------------|
B |-----------------------------------------------------------------|
F#|-3-----3-3---3-------3---3-3-3-3-5-----5-5---5-------5---5-5-5-5-|
B |-----------------------------------------------------------------|

E |-----------------------------------------------------------------|
B |-----------------------------------------------------------------|
F#|-----------------------------------------------------------------|
B |-2---2---------------------------2---2---------------------------|

2:32
E |-----------------------------------------------------------------|
B |-----------------------------------------------------------------|
F#|-3-----3-3---3-----3-3---3-3-3-3-5-----5-5---5-----5-5---5-5-5-5-|
B |-----------------------------------------------------------------|

E |-----------------------------------------------------------------|
B |-----------------------------------------------------------------|
F#|-----------------------------------------------------------------|
B |-2-2-----------------------------2-2-----------------------------|

E |-----------------------------------------------------------------|
B |-----------------------------------------------------------------|
F#|-3-----3-3---3---3-3-3-3-3-3-3-3-5-------------------------------|
B |-----------------------------------------------------------------|

Rest

2:53
E |-----------------------------------------------------------------|
B |-----------------------------------------------------------------|
F#|---------------------------------3-----3-3---3-----3-3-----------|
B |-2-----2-2---2-------2---5-5-5-5-------------------------5-5-5-5-|

E |-----------------------------------------------------------------|
B |-----------------------------------------------------------------|
F#|-----------------------------------------------------------------|
B |-0-----0-0---0-----0-0---2-4-7-2-5-5---5-5-5---5-4-4---4-4-4-4-4-|

E |-----------------------------------------------------------------|
B |-----------------------------------------------------------------|
F#|---------------------------------3-----3-3---3-------3-----------|
B |-2-----2-2---2-------2---5-5-5-5-------------------------5-5-5-5-|

E |-----------------------------------------------------------------|
B |-----------------------------------------------------------------|
F#|-----------------------------------------------------------------|
B |-0-----0-0---0-----0-0---2-4-5-7-5-5---5-5-5---5-4-4---4-4-4-4-4-|

E |-----------------------------------------------------------------|
B |-----------------------------------------------------------------|
F#|-------------3-------------------------------3-----------5-7-5-3-|
B |-2---2---------------------------2---2---------------------------|

E |-----------------------------------------------------------------|
B |-----------------------------------------------------------------|
F#|-------------3-------------------------------5-------------------|
B |-2---2---------------------------2---2---------------------------|
Tabbed by Dave Vucko
comments
We did not receive enough feedback on this tab! Please rate:
print report bad tab
1 2 3 4 5
I want to post or [tab]
guest
You may want to rate the tab now too:
select rating
Please do not post tabs as comments. Select "correction" instead!