Oops, an error
Loading. Please wait.

Je T Aimais Je T Aime Je T Aimerai Tab

26,923 views 18 this week
no commentswrite comment
1 2 3 4 5
accurate
x 4
Autoscroll
+/-
esc
set tempo
stop
Contributor
Hey! There's an official Ultimate Guitar app which is ideal
for learning songs when you're away from computer. Get the app
WARNING: You are trying to view
                                    content from Ultimate-Guitar.com
                                    in an unauthorized application,
                                    which is prohibited.

                                    Please use an official Ultimate
                                    Guitar Tabs application for iPhone,
                                    iPad or Android to access legitimate
                                    chords, guitar, bass, and drum tabs
                                    from Ultimate-Guitar.com database.

                                    Type "ultimate guitar tabs" in Apple
                                    App Store's or Android Market's
                                    search to find the application.
je t'aimais, je t'aime, je t'aimerai ecrit par francis cabrel

 intro 
|--------------------3--------------------------|
|-0--0-0--0----------0-0---0-------------3-3----|
|-0--0-0--0--2-2---2---2p0-0------0------0-0----|
|-0--0-0--0--0-0---0-------0------0-0-0--0-0----|
|-2-------2----------------2------2-------------|
|-3-------3----------------3----3------3------3-|

|---------------------3-----------------------------------------|
|-0--0-0--0-----------0-0---0-----------------------------------|
|-0--0-0--0--2-2-2--2---2p0-0----0------0-0---0---0---0-0---0-0-|
|-0--0-0--0--0-0-0--0-------0----0-0-0--0-0---0---0---0-0---0-0-|
|-2-------2-----------------2----2------------------------------|
|-3-------3-----------------3--3------3-----3---3---3-----3-----|

couplet

|---------------------3------------------------|
|-0--0-0--0-----------0-0----------------0-0---|
|-0--0-0--0--2-2-2--2---2p0-0-------0-0--0-0---|
|-0--0-0--0--0-0-0--0-------0-----0-0-0--0-0---|
|-2-------2-----------------2-----2------------|
|-3-------3-----------------3--3--3----3-------|

|-2-2-2--2-2-2---2-----------2-2-2---2-2-2------|
|-3-3-3--3-3-3-3-3-----3--3--3-3-3-3-3-3-3-3----|
|-2-2-2--2-2-2-2---0---2--2--2-2-2-2-2-2-2-2----|
|-0-0-0--0-0-0-0---0---0--0--------0-------0----|
|--------------0--------------------------------|
|-----------------------------------------------|

|--------0-0-0----0-0-0-0----------------------0-0-0-0-------|
|--------1-1-1----3-3-3-3--1-1-1-1---1-1-1-----3-3-3-3-1-1-0-|
|-0-0-0--0-0-0-0--0-0-0-0--0-0-0-0---0-0-0-----0-0-0-0-0-0-0-|
|-2-2-2--------2--2-2-2-2--2-2-2-2-2-2-2-2--2--2-2-2-2-2-2-2-|
|-3-3-3--------3-----------3-3-3-3-3--------3----------------|
|------------------------------------------------------------|

|----0-0-0-----0-0-0--------------------------------|
|-0--0-0-0--0--0-0-0-------------0-0-0-0-0--0-0-0---|
|-0--0-0-0--0--0-0-0-0-0-0-0-----0-0-0-0-0--0-0-0---|
|-2--2-2-2--2--2-2-2-0-0-0-2-----2-2-2-0-0--0-0-0---|
|-2---------2--------2-2-2-2-2-----2-2-2-2--2-2-0---|
|----------------------------0-0--------------------|

|---------------------3------------------------|
|-0--0-0--0-----------0-0----------------0-0---|
|-0--0-0--0--2-2-2--2---2p0-0-------0-0--0-0---|
|-0--0-0--0--0-0-0--0-------0-----0-0-0--0-0---|
|-2-------2-----------------2-----2------------|
|-3-------3-----------------3--3--3----3-------|

|-2-2-2--2-2-2---2-----------2-2-2---2-2-2------|
|-3-3-3--3-3-3-3-3-----3--3--3-3-3-3-3-3-3-3----|
|-2-2-2--2-2-2-2---0---2--2--2-2-2-2-2-2-2-2----|
|-0-0-0--0-0-0-0---0---0--0--------0-------0----|
|--------------0--------------------------------|
|-----------------------------------------------|

|--------0-0-0----0-0-0-0----------------------0-0-0-0-------|
|--------1-1-1----3-3-3-3--1-1-1-1---1-1-1-----3-3-3-3-1-1-0-|
|-0-0-0--0-0-0-0--0-0-0-0--0-0-0-0---0-0-0-----0-0-0-0-0-0-0-|
|-2-2-2--------2--2-2-2-2--2-2-2-2-2-2-2-2--2--2-2-2-2-2-2-2-|
|-3-3-3--------3-----------3-3-3-3-3--------3----------------|
|------------------------------------------------------------|

|----0-0-0-----0-0-0--------------------------------|
|-0--0-0-0--0--0-0-0-------------0-0-0-0-0--0-0-0---|
|-0--0-0-0--0--0-0-0-0-0-0-0-----0-0-0-0-0--0-0-0---|
|-2--2-2-2--2--2-2-2-0-0-0-2-----2-2-2-0-0--0-0-0---|
|-2---------2--------2-2-2-2-2-----2-2-2-2--2-2-0---|
|----------------------------0-0--------------------|

|------0-0-----0-0------------0-0-----0-0------|
|-1-1--1-1-1-1-1-1-1-0----1-1-1-1-1-1-1-1-1-0--|
|-0-0--0-0-0-0-0-0-0-0----2-2-2-2-2-2-2-2-2-0--|
|-2-2------2-2-----2-0----2-2-----2-2-----2-0--|
|-3--------3-------3------0-------0-------0----|
|----------------------------------------------|

|-2-2-2--2-2-2---2-----------2-2-2---2-2-2------|
|-3-3-3--3-3-3-3-3-----3--3--3-3-3-3-3-3-3-3----|
|-2-2-2--2-2-2-2---0---2--2--2-2-2-2-2-2-2-2----|
|-0-0-0--0-0-0-0---0---0--0--------0-------0----|
|--------------0--------------------------------|
|-----------------------------------------------|

|------0-0-----0-0------------0-0-----0-0------|
|-1-1--1-1-1-1-1-1-1-0----1-1-1-1-1-1-1-1-1-0--|
|-0-0--0-0-0-0-0-0-0-0----2-2-2-2-2-2-2-2-2-0--|
|-2-2------2-2-----2-0----2-2-----2-2-----2-0--|
|-3--------3-------3------0-------0-------0----|
|----------------------------------------------|

|-2-2-2--2-2-2---2-----------2-2-2---2-2-2------|
|-3-3-3--3-3-3-3-3-----3--3--3-3-3-3-3-3-3-3----|
|-2-2-2--2-2-2-2---0---2--2--2-2-2-2-2-2-2-2----|
|-0-0-0--0-0-0-0---0---0--0--------0-------0----|
|--------------0--------------------------------|
|-----------------------------------------------|

|------0-0-----0-0--------|
|-1-1--1-1-1-1-1-1-1-0----|
|-0-0--0-0-0-0-0-0-0-0----|
|-2-2------2-2-----2-0----|
|-3--------3-------3------|
|-------------------------|

|----0-0-0-----0-0-0--------------------------------|
|-0--0-0-0--0--0-0-0-------------0-0-0-0-0--0-0-0---|
|-0--0-0-0--0--0-0-0-0-0-0-0-----0-0-0-0-0--0-0-0---|
|-2--2-2-2--2--2-2-2-0-0-0-2-----2-2-2-0-0--0-0-0---|
|-2---------2--------2-2-2-2-2-----2-2-2-2--2-2-0---|
|----------------------------0-0--------------------|

|---------------------3------------------------|
|-0--0-0--0-----------0-0----------------0-0---|
|-0--0-0--0--2-2-2--2---2p0-0-------0-0--0-0---|
|-0--0-0--0--0-0-0--0-------0-----0-0-0--0-0---|
|-2-------2-----------------2-----2------------|
|-3-------3-----------------3--3--3----3-------|

|-2-2-2--2-2-2---2-----------2-2-2---2-2-2------|
|-3-3-3--3-3-3-3-3-----3--3--3-3-3-3-3-3-3-3----|
|-2-2-2--2-2-2-2---0---2--2--2-2-2-2-2-2-2-2----|
|-0-0-0--0-0-0-0---0---0--0--------0-------0----|
|--------------0--------------------------------|
|-----------------------------------------------|

|--------0-0-0----0-0-0-0----------------------0-0-0-0-------|
|--------1-1-1----3-3-3-3--1-1-1-1---1-1-1-----3-3-3-3-1-1-0-|
|-0-0-0--0-0-0-0--0-0-0-0--0-0-0-0---0-0-0-----0-0-0-0-0-0-0-|
|-2-2-2--------2--2-2-2-2--2-2-2-2-2-2-2-2--2--2-2-2-2-2-2-2-|
|-3-3-3--------3-----------3-3-3-3-3--------3----------------|
|------------------------------------------------------------|

|----0-0-0-----0-0-0--------------------------------|
|-0--0-0-0--0--0-0-0-------------0-0-0-0-0--0-0-0---|
|-0--0-0-0--0--0-0-0-0-0-0-0-----0-0-0-0-0--0-0-0---|
|-2--2-2-2--2--2-2-2-0-0-0-2-----2-2-2-0-0--0-0-0---|
|-2---------2--------2-2-2-2-2-----2-2-2-2--2-2-0---|
|----------------------------0-0--------------------|

|---------------------3------------------------|
|-0--0-0--0-----------0-0----------------0-0---|
|-0--0-0--0--2-2-2--2---2p0-0-------0-0--0-0---|
|-0--0-0--0--0-0-0--0-------0-----0-0-0--0-0---|
|-2-------2-----------------2-----2------------|
|-3-------3-----------------3--3--3----3-------|

|-2-2-2--2-2-2---2-----------2-2-2---2-2-2------|
|-3-3-3--3-3-3-3-3-----3--3--3-3-3-3-3-3-3-3----|
|-2-2-2--2-2-2-2---0---2--2--2-2-2-2-2-2-2-2----|
|-0-0-0--0-0-0-0---0---0--0--------0-------0----|
|--------------0--------------------------------|
|-----------------------------------------------|

|--------0-0-0----0-0-0-0----------------------0-0-0-0-------|
|--------1-1-1----3-3-3-3--1-1-1-1---1-1-1-----3-3-3-3-1-1-0-|
|-0-0-0--0-0-0-0--0-0-0-0--0-0-0-0---0-0-0-----0-0-0-0-0-0-0-|
|-2-2-2--------2--2-2-2-2--2-2-2-2-2-2-2-2--2--2-2-2-2-2-2-2-|
|-3-3-3--------3-----------3-3-3-3-3--------3----------------|
|------------------------------------------------------------|

|----0-0-0-----0-0-0--------------------------------|
|-0--0-0-0--0--0-0-0-------------0-0-0-0-0--0-0-0---|
|-0--0-0-0--0--0-0-0-0-0-0-0-----0-0-0-0-0--0-0-0---|
|-2--2-2-2--2--2-2-2-0-0-0-2-----2-2-2-0-0--0-0-0---|
|-2---------2--------2-2-2-2-2-----2-2-2-2--2-2-0---|
|----------------------------0-0--------------------|

|------0-0-----0-0------------0-0-----0-0------|
|-1-1--1-1-1-1-1-1-1-0----1-1-1-1-1-1-1-1-1-0--|
|-0-0--0-0-0-0-0-0-0-0----2-2-2-2-2-2-2-2-2-0--|
|-2-2------2-2-----2-0----2-2-----2-2-----2-0--|
|-3--------3-------3------0-------0-------0----|
|----------------------------------------------|

|-2-2-2--2-2-2---2-----------2-2-2---2-2-2------|
|-3-3-3--3-3-3-3-3-----3--3--3-3-3-3-3-3-3-3----|
|-2-2-2--2-2-2-2---0---2--2--2-2-2-2-2-2-2-2----|
|-0-0-0--0-0-0-0---0---0--0--------0-------0----|
|--------------0--------------------------------|
|-----------------------------------------------|

|------0-0-----0-0------------0-0-----0-0------|
|-1-1--1-1-1-1-1-1-1-0----1-1-1-1-1-1-1-1-1-0--|
|-0-0--0-0-0-0-0-0-0-0----2-2-2-2-2-2-2-2-2-0--|
|-2-2------2-2-----2-0----2-2-----2-2-----2-0--|
|-3--------3-------3------0-------0-------0----|
|----------------------------------------------|

|-2-2-2--2-2-2---2-----------2-2-2---2-2-2------|
|-3-3-3--3-3-3-3-3-----3--3--3-3-3-3-3-3-3-3----|
|-2-2-2--2-2-2-2---0---2--2--2-2-2-2-2-2-2-2----|
|-0-0-0--0-0-0-0---0---0--0--------0-------0----|
|--------------0--------------------------------|
|-----------------------------------------------|

|------0-0-----0-0--------|
|-1-1--1-1-1-1-1-1-1-0----|
|-0-0--0-0-0-0-0-0-0-0----|
|-2-2------2-2-----2-0----|
|-3--------3-------3------|
|-------------------------|

|----0-0-0-----0-0-0--------------------------------|
|-0--0-0-0--0--0-0-0-------------0-0-0-0-0--0-0-0---|
|-0--0-0-0--0--0-0-0-0-0-0-0-----0-0-0-0-0--0-0-0---|
|-2--2-2-2--2--2-2-2-0-0-0-2-----2-2-2-0-0--0-0-0---|
|-2---------2--------2-2-2-2-2-----2-2-2-2--2-2-0---|
|----------------------------0-0--------------------|


steve,  pompom020366@hotmail.com  pompom@sympatico.ca




















comments
print report bad tab
I want to post or [tab]
guest
You may want to rate the tab now too:
select rating
Please do not post tabs as comments. Select "correction" instead!