Oops, an error
Loading. Please wait.

Ave Maria Tab

ver2
ver2

Whole song

More versions @911Tabs.com
27,267 views 93 this week
no commentswrite comment
1 2 3 4 5
excellent!
x 3
add to favorites launch autoscroll
font size
0
reset
Autoscroll
+/-
esc
set tempo
stop
Contributor
Tabbers playing skills
advanced
WARNING: You are trying to view
                                    content from Ultimate-Guitar.com
                                    in an unauthorized application,
                                    which is prohibited.

                                    Please use an official Ultimate
                                    Guitar Tabs application for iPhone,
                                    iPad or Android to access legitimate
                                    chords, guitar, bass, and drum tabs
                                    from Ultimate-Guitar.com database.

                                    Type "ultimate guitar tabs" in Apple
                                    App Store's or Android Market's
                                    search to find the application.
\---Song:-Ave-Maria-------------------\
 \---Composer:-Franz-Schubert----------\
  \---Transcription-by:Christian Liang--\
  /---E-Mail:christian.liang@gmail.com--/
 /---http://www.classclef.com----------/
/---Enjoy!----------------------------/

==========================================================================
                 Ave Maria by Franz Schubert (1797 - 1828)
==========================================================================

Slowly, in 2
Time Signature: 6/8
Key: C major


[1]                                                      
E|-----------0--------|--------------------|--0-----------------|
B|--1-----------------|-----------0--------|-----------1--------|
G|--------0-----0-----|--------5--------5--|--------0-----0-----|
D|-----2-----------2--|-----4--------4-----|-----2-----------2--|
A|--3-----------------|--0-----------------|--------------------|
E|--------------------|--------------------|--3-----------------|
    |  |  |  |  |  |     |  |  |  |  |  |     |  |  |  |  |  |  
    |        |           |        |           |        |
L   1  2           2        2  4     2  4     3  2     1     2
    3

R   a  i  m  a  m  i     p  i  m  a  i  m     a  i  m  a  m  i
    p                                         p



[4]                                                      
E|--------------------|-----------0--------|--------------------|
B|-----------0-----3--|--1-----------------|-----------1--------|
G|--------0-----0-----|--------2-----2-----|--------2-----2-----|
D|-----3--------------|-----2-----------2--|-----2-----------2--|
A|--------------------|--0-----------------|--0-----------------|
E|--3-----------------|--------------------|--------------------|
    |  |  |  |  |  |     |  |  |  |  |  |     |  |  |  |  |  |  
    |        |           |        |           |        |
L   2  3           4     1  2  3     3  2        2  3  1  3  2

R   p  i  m  a  m  a     a  i  m  a  m  i     p  i  m  a  m  i
                         p 


[7]                                                      
E|-----------------0--|--------------------|-----------0--------|
B|--3---------------3-|--1-----0--------0--|--1-----------------|
G|-----------2--------|-----------2--------|--------0-----0-----|
D|-----0h-3-----3-----|-----3--------3-----|-----2-----------2--|
A|--------------------|--------------------|--3-----------------|
E|--1-----------------|--3-----------------|--------------------|
    |  |  |  |  |  |     |  |  |  |  |  |     |  |  |  |  |  |  
    |        |           |        |           |        |
L   4     3  2  3  4     1  4     2  4        1  2           2
    1                    3                    3

R   a  i     m  i  a m   a  i  a  m  i  a     a  i  m  a  m  i
    p                    p                    p


[10]                           I3..........      II5.............                             
E|-----------0--------|--0-----------------|-----------------2--|
B|--------1-----1-----|-----------1--3--1--|--0--------5--------|
G|-----0-----------0--|--------1-----------|--------2-----2-----|
D|--------------------|-----2--------------|-----2--------------|
A|--3-----------------|--3-----------------|--3-----------------|
E|--------------------|--------------------|--------------------|
    |  |  |  |  |  |     |  |  |  |  |  |     |  |  |  |  |  |  
    |        |           |        |           |        |
L   3     1     1        3  2  1  1  4  1     2  1  1  4  1  1

R   p  i  m  a  m  i     a  i  m  a  m  i     a  i  m  a  m  a
                         p                    p


[13].....................................                                                    
E|-----------2--------|-----------2--------|--------------------|
B|--5-----------------|--4--------------0--|--3--------0--------|
G|--------2-----2-----|--------2-----2-----|-----------------5--|
D|-----4-----------4--|-----4--------------|-----0h-3-----3-----|
A|--2-----------------|--2-----------------|--------------------|
E|--------------------|--------------------|--4-----------------|
    |  |  |  |  |  |     |  |  |  |  |  |     |  |  |  |  |  |  
    |        |           |        |           |        |
L   4  3  1  1  1  3     4  3  1  1  1        2     1     1  4
    1                    1                    3

R   a  i  m  a  m  i     a  i  m  a  i  m     a  i     a  i  m
    p                    p                    p


[16]                                                      
E|--------0-----------|-----------0--------|--------------------|
B|--0--3-----6--3--0--|--1-----------------|-----------5-----3--|
G|--------------------|--------2-----2-----|--------5-----------|
D|--------------------|-----2-----------2--|-----4--------4-----|
A|--------------------|--0-----------------|--0-----------------|
E|--4-----------------|--------------------|--------------------|
    |  |  |  |  |  |     |  |  |  |  |  |     |  |  |  |  |  |  
    |        |           |        |           |        |
L   2  1     4  1        1  2  3     3  2        2  3  4  2  1

R   m  i  a  m  i  m     a  i  m  a  m  i     p  i  m  a  i  a
    p                    p


[19]                     II4...............   III...............
E|-----------3--------|-----------3--------|-----------3--------|
B|--3--------------0--|-----2--5-----5--2--|--3-----------------|
G|--------0-----0-----|--2-----------------|--------4-----4-----|
D|-----0--------------|--2-----------------|-----5-----------5--|
A|--2-----------------|--------------------|--5-----------------|
E|--------------------|--------------------|--------------------|
    |  |  |  |  |  |     |  |  |  |  |  |     |  |  |  |  |  |  
    |        |           |        |           |        |
L   3        4           1  1  4  2  4  1     1  4  2  1  2  4
    2                    1                    3

R   a  i  m  a   i  m    i  m  i  a  m  i     a  i  m  a  m  i
    p                    p                    p


[22]                                                      
E|--------------------|-----------3--------|--------------------|
B|--------0--1--0-----|--------0-----0-----|--------------------|
G|-----2-----------2--|--0-----------------|-----------0--------|
D|--0-----------------|-----0-----------0--|--------0-----0-----|
A|--------------------|--------------------|-----2-----------2--|
E|--------------------|--3-----------------|--3-----------------|
    |  |  |  |  |  |     |  |  |  |  |  |     |  |  |  |  |  |  
    |        |           |        |           |        |
L   2        1     2     3        4           3  2           2

R   p  i  m  a  m  i     m  i  m  a  m  i     p  i  m  a  m  i
                         p


[25]                                                      
E|--------------------|-----------------0--|--------0-----------|
B|--3--------------3--|--3-----2--3--------|--3--------1--------|
G|-----------0--------|--------------------|-----------------0--|
D|--------3-----3-----|-----3--------3-----|-----2--------2-----|
A|-----2--------------|--------------------|--------------------|
E|--3-----------------|--3-----------------|--3-----------------|
    |  |  |  |  |  |     |  |  |  |  |  |     |  |  |  |  |  |  
    |        |           |        |           |        |
L   4  1  3     3  4     4  3  1  4  3        4  2     1  2
    2                    2                    3

R   a  p  i  m  i  a     a  p  a  m  p  a     a  p  a  m  p  i
    p                    p                    p


[28]                                                      
E|--------------------|--------------------|-----------1--0-----|
B|-----------1--------|--3--------------3--|--3--2--3--------3--|
G|--------0-----0-----|-----------0--------|--------------------|
D|-----2-----------2--|--------3-----3-----|--------------------|
A|--------------------|-----2--------------|--------------------|
E|--3-----------------|--3-----------------|--3-----------------|
    |  |  |  |  |  |     |  |  |  |  |  |     |  |  |  |  |  |  
    |        |           |        |           |        |
L   3  2     1     2     4  1  3     3  4     4  2  4  1     4
                         2                    3

R   p  i  m  a  m  i     a  p  i  m  i  a     a  m  i  a  m  i
                         p                    p

[31]                                                      
E|-----------0--------|--------------------|--------------------|
B|--1-----------------|-----------1--------|--3--------------3--|
G|--------2-----2-----|--------2-----2-----|-----------0--------|
D|-----2-----------2--|-----2-----------2--|--------0-----0-----|
A|--0-----------------|--0-----------------|-----2--------------|
E|--------------------|--------------------|--3-----------------|
    |  |  |  |  |  |     |  |  |  |  |  |     |  |  |  |  |  |  
    |        |           |        |           |        |
L   1  2  3     3  2        2  3  1  3  2     4  2           4
                                              3

R   a  i  m  a  m  i     p  i  m  a  m  i     a  p  i  m  i  a
    p                                         p

[34]                                                      
E|--0-----0--0-----0--|--3--------1--------|--------------------|
B|--------------3-----|--------3--------3--|--------3-----------|
G|-----1--------------|-----2--------2-----|-----2-----2-----2--|
D|--------------------|--0-----------------|--0-----------------|
A|--------------------|--------------------|--------------------|
E|--0-----------------|--------------------|--------------------|
    |  |  |  |  |  |     |  |  |  |  |  |     |  |  |  |  |  |  
    |        |           |        |           |        |
L      1        3        4  2  3  1  2  3        2  3  2     2
                          

R   a  i  m  a  i  m     a  i  m  a  i  m     p  i  m  i     i
    p                    p


[37]                                                      
E|--0-----------------|--------------------|--------------------|
B|-----------3-----3--|-----0-----4--3--1--|--3-----------------|
G|--------2-----2-----|--5-----5-----------|-----------0--------|
D|-----0--------------|--4-----------------|--------3-----3-----|
A|--------------------|--0-----------------|-----2-----------2--|
E|--1-----------------|--------------------|--3-----------------|
    |  |  |  |  |  |     |  |  |  |  |  |     |  |  |  |  |  |  
    |        |           |        |           |        |
L   1     2  4  2  4     3     3  2  1  1     4  1  3     3  1
                         1                    2

R   a  i  m  a  m  a     m  a  m  a  m  i     a  i  m  a  m  i
    p                    i                    p
                         p

[40]                                                      
E|--------------------|-----------0--------|--------------------|
B|-----------0--------|--1-----------------|-----------0--------|
G|--------0-----0-----|--------0-----0-----|--------5--------5--|
D|-----3-----------3--|-----2-----------2--|-----4--------4-----|
A|--------------------|--3-----------------|--0-----------------|
E|--3-----------------|--------------------|--------------------|
    |  |  |  |  |  |     |  |  |  |  |  |     |  |  |  |  |  |  
    |        |           |        |           |        |
L   3  4           4     1  2           2        2  4     2  4
                         3

R   p  i  m  a  m  i     a  i  m  a  m  i     p  i  m  a  m  a
                         p


[43]                                                      
E|--0-----------------|--------------------|-----------0--------|
B|-----------1--------|-----------0-----3--|--1================-|
G|--------0-----0-----|--------0-----0-----|--------0-----0-----|
D|-----2-----------2--|-----3--------------|-----2-----------2--|
A|--------------------|--------------------|--3-----------------|
E|--3-----------------|--3-----------------|--------------------|
    |  |  |  |  |  |     |  |  |  |  |  |     |  |  |  |  |  |  
    |        |           |        |           |        |
L   3  2     1     2     2  3           4     1  2           2
                                              3

R   a  i  m  a  m  i     p  i  m  a  m  a     a  i  m  a  m  i 
    p                                         p


[46]                                                      
E|--------------------|
B|--------------------|
G|--------------------|
D|--------------------|
A|--3================-|
E|--------------------|
    |  |  |  |  |  |     
    |        |           
L   3

R   p


======
Legend
======
Left                       Right                 
p = pull off               p = pulgar = thumb   
h = hammer on              i = indice = index     
/ = slide                  m = medio = middle     
= = suspend/hold Note      a = anular = ring      
V3 = Barre at fret 5 (bottom 3 strings)
comments
We did not receive enough feedback on this tab! Please rate:
print report bad tab
1 2 3 4 5
I want to post or [tab]
guest
You may want to rate the tab now too:
select rating
Please do not post tabs as comments. Select "correction" instead!