Oops, an error
Loading. Please wait.

Speak When Spoken To Tab

3,330 views 6 this week
no commentswrite comment
1 2 3 4 5
excellent!
x 2
add to favorites launch autoscroll
font size
0
reset
Autoscroll
+/-
esc
set tempo
stop
Contributor
Difficulty
advanced
WARNING: You are trying to view
                                    content from Ultimate-Guitar.com
                                    in an unauthorized application,
                                    which is prohibited.

                                    Please use an official Ultimate
                                    Guitar Tabs application for iPhone,
                                    iPad or Android to access legitimate
                                    chords, guitar, bass, and drum tabs
                                    from Ultimate-Guitar.com database.

                                    Type "ultimate guitar tabs" in Apple
                                    App Store's or Android Market's
                                    search to find the application.
Freak Kitchen - Speak When Spoken To

[By Avishay Zabari]
 Guitar 1:

D#||-----------------------|-----------------------|-----------------------|
A#||-----------------------|-----------------------|-----------------------|
F#||-----------------------|-----------------------|-----------------------|
C#||-----------------------|-----------------------|-----------------------|
G#||--0------0--3--5--5b---|--0------0--3--5--5b---|--0------0--3--5--5b---|
C#||--0------0--3--5--5b---|--0------0--3--5--5b---|--0------0--3--5--5b---|


                                                                          
-----------------------|------------------------|------------------------|
-----------------------|------------------------|------------------------|
-----------------------|------------------------|------------------------|
----7----5--7--7--5----|------------------------|------------------------|
----5----3--5--5--3----|--0----x--0--3--5--5b---|--0----x--0--3--5--5b---|
-----------------------|--0----x--0--3--5--5b---|--0----x--0--3--5--5b---|


                                                                          
------------------------|-----------------------|------------------------|
------------------------|-----------------------|------------------------|
------------------------|-----------------------|------------------------|
------------------------|----7----5--7--7--5----|------------------------|
--0----x--0--3--5--5b---|----5----3--5--5--3----|--0----x--0--3--5--5b---|
--0----x--0--3--5--5b---|-----------------------|--0----x--0--3--5--5b---|


                                                                            
--------------------------|------------------------|-----------------------|
--------------------------|------------------------|-----------------------|
--------------------------|------------------------|-----------------------|
--------------------------|------------------------|----7----5--7--7--5----|
--0----x--0--3--5--5b-----|--0----x--0--3--5--5b---|----5----3--5--5--3----|
--0----x--0--3--5--5b-----|--0----x--0--3--5--5b---|-----------------------|


                                                                
--------------------|---------------------|--------------------|
--------------------|---------------------|--------------------|
---------7----------|---------------------|---------7----------|
---------7----------|---------------------|---------7----------|
--0-----------------|---------------------|--0-----------------|
--0-----------------|--------0--15~-------|--0-----------------|


                                                                              
---------------------------|----------------------|---|----------------------|
---------------------------|----------------------|---|----------------------|
-----------------5-7-5-----|----------------------|---|----------------------|
-------------5-7-------7-5-|---------7--5----7/---|---|---------7--5----7/---|
--------5r-5---------------|--0------5--3----5/---|---|--0------5--3----5/---|
---------------------------|--0-------------------|---|--0-------------------|


                                                          
---|----------------------|---|----------------------|---|
---|----------------------|---|----------------------|---|
---|----------------------|---|----------------------|---|
---|---------7--5----7/---|---|---------7--5----7/---|---|
---|--0------5--3----5/---|---|--0------5--3----5/---|---|
---|--0-------------------|---|--0-------------------|---|


                                                                     
----------------------|--------------------|------------------------|
----------------------|--------------------|------------------------|
----------------------|--------------------|------------------------|
----------------------|--------------------|------------------------|
--6--7------8--7------|--6--7--------------|--0----x--0--3--5--5b---|
--6--7------8--7------|--6--7--------------|--0----x--0--3--5--5b---|


                                                                          
------------------------|------------------------|-----------------------|
------------------------|------------------------|-----------------------|
------------------------|------------------------|-----------------------|
------------------------|------------------------|----7----5--7--7--5----|
--0----x--0--3--5--5b---|--0----x--0--3--5--5b---|----5----3--5--5--3----|
--0----x--0--3--5--5b---|--0----x--0--3--5--5b---|-----------------------|


                                                                             
------------------------|--------------------------|------------------------|
------------------------|--------------------------|------------------------|
------------------------|--------------------------|------------------------|
------------------------|--------------------------|------------------------|
--0----x--0--3--5--5b---|--0----x--0--3--5--5b-----|--0----x--0--3--5--5b---|
--0----x--0--3--5--5b---|--0----x--0--3--5--5b-----|--0----x--0--3--5--5b---|


                                                                    
-----------------------|--------------------|----------------------|
-----------------------|--------------------|----------------------|
-----------------------|---------7----------|----------------------|
----7----5--7--7--5----|---------7----------|----------------------|
----5----3--5--5--3----|--0-----------------|-------------3--------|
-----------------------|--0-----------------|----------5-----5--3--|


                                                                               
--------------------|------------------------10p8--|----------------------|---|
--------------------|--------8t6t--------8p6-------|----------------------|---|
---------7----------|------------7p5---5t----------|----------------------|---|
---------7----------|----------------7t------------|---------7--5----7/---|---|
--0-----------------|------------------------------|--0------5--3----5/---|---|
--0-----------------|------------------------------|--0-------------------|---|


                                                                             
----------------------|---|----------------------|---|----------------------|
----------------------|---|----------------------|---|----------------------|
----------------------|---|----------------------|---|----------------------|
---------7--5----7/---|---|----------------------|---|----------------------|
--0------5--3----5/---|---|--3------3--2----3/---|---|--5------5--4----5/---|
--0-------------------|---|--3------3--2----3/---|---|--5------5--4----5/---|


                                                                   
----------------------|----------------------|--------------------|
----------------------|----------------------|--------------------|
----------------------|----------------------|--------------------|
----------------------|----------------------|--------------------|
--------------x-x-x-x-|--6--7------8--7------|--6--7--------------|
--------------x-x-x-x-|--6--7------8--7------|--6--7--------------|


                                                                           
------------------------|------------------------|------------------------|
------------------------|------------------------|------------------------|
------------------------|------------------------|------------------------|
------------------------|------------------------|------------------------|
--0----x--0--3--5--5b---|--0----x--0--3--5--5b---|--0----x--0--3--5--5b---|
--0----x--0--3--5--5b---|--0----x--0--3--5--5b---|--0----x--0--3--5--5b---|


                                                                            
-----------------------|------------------------|--------------------------|
-----------------------|------------------------|--------------------------|
-----------------------|------------------------|--------------------------|
----7----5--7--7--5----|------------------------|--------------------------|
----5----3--5--5--3----|--0----x--0--3--5--5b---|--0----x--0--3--5--5b-----|
-----------------------|--0----x--0--3--5--5b---|--0----x--0--3--5--5b-----|


                                                                          
------------------------|-----------------------|------------------------|
------------------------|-----------------------|------------------------|
------------------------|-----------------------|------------------------|
------------------------|----7----5--7--7--5----|------------------------|
--0----x--0--3--5--5b---|----5----3--5--5--3----|--2----x--2--5--7--7b---|
--0----x--0--3--5--5b---|-----------------------|--2----x--2--5--7--7b---|


                                                                          
------------------------|------------------------|-----------------------|
------------------------|------------------------|-----------------------|
------------------------|------------------------|-----------------------|
------------------------|------------------------|-----------------------|
--2----x--2--5--7--7b---|--2----x--2--5--7--7b---|----2----0--2--2--0----|
--2----x--2--5--7--7b---|--2----x--2--5--7--7b---|----2----0--2--2--0----|


                                                                               
------------------------|----------------------------|------------------------|
------------------------|----------------------------|------------------------|
------------------------|----------------------------|------------------------|
------------------------|----------------------------|------------------------|
--2----x--2--5--7--7b---|--2----x--2--5--7--7b-x--x--|--2----x--2--5--7--7b---|
--2----x--2--5--7--7b---|--2----x--2--5--7--7b-x--x--|--2----x--2--5--7--7b---|


                                                                    
-----------------------|--------------------|----------------------|
-----------------------|--------------------|----------------------|
-----------------------|--------------------|-------6----4---------|
-----------------------|---------------6----|--7--------------6----|
----2----0--2--2--0----|--0-----------------|----------------------|
----2----0--2--2--0----|--0-----------------|----------------------|


                                                                 
--------------------|----------------------|--------------------|
--------------------|----------------------|--------------------|
--------------------|-------6----4/---9----|--------------------|
---------------6----|--7-------------------|---------------6----|
--0-----------------|----------------------|--0-----------------|
--0-----------------|----------------------|--0-----------------|


                                                                             
----------------------|--------------------------|--------------------------|
-----------------9----|--------------6--8--8b----|--------------6--8--8b----|
-------6----4---------|--7--------7--7-----------|--7--------7--7-----------|
--7-------------------|--------7-----------7-----|--------7-----------7-----|
----------------------|-----5-----5-----5-----5--|-----5-----5-----5-----5--|
----------------------|--------------------------|--------------------------|


                                                         
--------------------------|-----10-----8--10--10--8~----|
--------------6--8--8b----|-----------------------------|
--7--------7--7-----------|--7------------7-------------|
--------7-----------7-----|---------7-------------7-----|
-----5-----5-----5-----5--|-----5------5------5------5--|
--------------------------|-----------------------------|


                                                      
--------------------------|--------------------------|
--------------------------|--------------------------|
--------------------------|--------------------------|
--------------------------|--------------------------|
--0--0--0--0--3--5--5b-5b-|--0--0--0--0--3--5--5b-5b-|
--0--0--0--0--3--5--5b-5b-|--0--0--0--0--3--5--5b-5b-|


                                                                       
--------------------------|----------------------|--------------------|
--------------------------|----------------------|--------------------|
--------------------------|----------------------|--------------------|
--------------------------|----------------------|--------------------|
--0--0--0--0--3--5--5b-5b-|--6--7------8--7------|--6--7--------------|
--0--0--0--0--3--5--5b-5b-|--6--7------8--7------|--6--7--------------|


                                                                               
--------------------------|--------------------------|------------------------|
--------------------------|--------------------------|------------------------|
--------------------------|--------------------------|------------------------|
--------------------------|--------------------------|------------------------|
--0--1--0--1--0--1--0--1--|--0--1--0--1--0--1--0--1--|--0----x--0--3--5--5b---|
--0--1--0--1--0--1--0--1--|--0--1--0--1--0--1--0--1--|--0----x--0--3--5--5b---|


                                                                          
------------------------|------------------------|-----------------------|
------------------------|------------------------|-----------------------|
------------------------|------------------------|-----------------------|
------------------------|------------------------|----7----5--7--7--5----|
--0----x--0--3--5--5b---|--0----x--0--3--5--5b---|----5----3--5--5--3----|
--0----x--0--3--5--5b---|--0----x--0--3--5--5b---|-----------------------|


                                                                             
------------------------|--------------------------|------------------------|
------------------------|--------------------------|------------------------|
------------------------|--------------------------|------------------------|
------------------------|--------------------------|------------------------|
--0----x--0--3--5--5b---|--0----x--0--3--5--5b-----|--0----x--0--3--5--5b---|
--0----x--0--3--5--5b---|--0----x--0--3--5--5b-----|--0----x--0--3--5--5b---|


                        
-----------------------|
-----------------------|
-----------------------|
----7----5--7--7--5----|
----5----3--5--5--3----|
-----------------------|


                                                                                
--15t12p10h12-17t12p10h12-15t12p10h12-17t12p10h12-15t12p10h12-17t12p10h12-15t12p
--------------------------------------------------------------------------------
--------------------------------------------------------------------------------
--------------------------------------------------------------------------------
--------------------------------------------------------------------------------
--------------------------------------------------------------------------------


                                                                         
--15t12p10h12-15t17b---15t12p10h12-15t17b------|--10~---9~---7~---10b---|
-----------------------------------------------|------------------------|
-----------------------------------------------|------------------------|
-----------------------------------------------|------------------------|
-----------------------------------------------|------------------------|
-----------------------------------------------|------------------------|


                                                          
-------------18----18----18-13b-|------------12-10-12~---|
----------18----18----18--------|------------------------|
--------------------------------|------------------------|
--------------------------------|------------------------|
--------------------------------|------------------------|
--------------------------------|------------------------|


                                   
--10----------------------24b-24--|
--------------20--21--22----------|
----------21----------------------|
----------------------------------|
----------------------------------|
----------------------------------|


                                                                      
------24-22----22-24-22----21-22-19----19-22-19----19-22-19-22-23-24-|
------------24----------24----------22----------22-------------------|
---------------------------------------------------------------------|
---------------------------------------------------------------------|
---------------------------------------------------------------------|
---------------------------------------------------------------------|


                                                             
--27-24-27-24-27-24-27-24-27-24-22-21-19-17-----------------|
--------------------------------------------15-16-17~-------|
------------------------------------------------------------|
------------------------------------------------------------|
------------------------------------------------------------|
------------------------------------------------------------|


                                                 
------------------------|----------------------||
------------------------|----------------------||
------------------------|----------------------||
------------------------|------7---------------||
--11--12------1--0------|--11--9---------------||
--11--12------1--0------|--11--12--------------||


 Guitar 2: (solo2)


-------------------------------------13----|
---------8-10-11-10-8----11-10-11-12----12-|
--9~---9--------------9--------------------|
-------------------------------------------|
-------------------------------------------|
-------------------------------------------|


                                                                            
---------------------------------3/---|--12~---12-10----10-12-13-14--15/---|
--11-10---13-12-11---12-11-10----5/---|--------------12--------------------|
--------9----------9----------9-------|------------------------------------|
--------------------------------------|------------------------------------|
--------------------------------------|------------------------------------|
--------------------------------------|------------------------------------|


                                                     
----15------14--------|----12--12--7--10--12/-13----|
----------------------|----12--12--5--8---10/-11----|
----------------------|-----------------------------|
----------------------|-----------------------------|
----------------------|-----------------------------|
----------------------|-----------------------------|


                               
----12--15--16--17---18~------|
------------------------------|
------------------------------|
------------------------------|
------------------------------|
------------------------------|


                                                                                
-----------20-22-20----------------19-20-19----------------19-20-19-------------
--22-23-24----------24-23-21-22-23----------23-22-20-21-22----------22-21-19-20-
--------------------------------------------------------------------------------
--------------------------------------------------------------------------------
--------------------------------------------------------------------------------
--------------------------------------------------------------------------------


                                                                                
-----------17-18-17----------------16-17-16----------------15-16-15-------------
--18-19-20----------20-19-17-18-19----------19-18-16-17-18----------18-17-15-16-
--------------------------------------------------------------------------------
--------------------------------------------------------------------------------
--------------------------------------------------------------------------------
--------------------------------------------------------------------------------


                                                                             
--------------------||
--15~~~~~~~~~~~~~~~~||
--------------------||
--------------------||
--------------------||
--------------------||

GOOD LUCK.
comments
We did not receive enough feedback on this tab! Please rate:
1 2 3 4 5
I want to post or [tab]
guest
You may want to rate the tab now too:
select rating
Please do not post tabs as comments. Select "correction" instead!