Oops, an error
Loading. Please wait.

Hunter Tab

by Free
10,332 views 15 this week
no commentswrite comment
1 2 3 4 5
accurate
x 4
Autoscroll
+/-
esc
set tempo
stop
Contributor
Hey! There's an official Ultimate Guitar app which is ideal
for learning songs when you're away from computer. Get the app
WARNING: You are trying to view
                                    content from Ultimate-Guitar.com
                                    in an unauthorized application,
                                    which is prohibited.

                                    Please use an official Ultimate
                                    Guitar Tabs application for iPhone,
                                    iPad or Android to access legitimate
                                    chords, guitar, bass, and drum tabs
                                    from Ultimate-Guitar.com database.

                                    Type "ultimate guitar tabs" in Apple
                                    App Store's or Android Market's
                                    search to find the application.
Song: THE HUNTER
Artist: Free
Album: TONS OF SOBS
Tabbed By: INDIE NATION

Words and Music by Steve Cropper, Booker T. Jones, Al Jackson Jr, Donald "Duck" Dunn & Carl Wells

Arranged by Free

Gtr I, II (E A D G B E) - 'Paul Kossoff - Lead / Rhythm w/amp overdrive'



Intro:

  Q=128(8=s8)
 4/4
  Gtr II
           ~~~~~      ~~~      ~~~~~~~~~
   a      +H       S  E.  +E   E    +H      +E   E  q
|--------------------------------|---------------------|
|-15b17==(15)r----13-------------|-----------------13--|
|--------------------14--(14)-14-|-(14)----(14)-14-----|
|--------------------------------|---------------------|
|--------------------------------|---------------------|
|--------------------------------|---------------------|


           ~~~~~               ~~~~~~~~~
   a      +H       S  E.  +E   E    +H      +E   E  q
|--------------------------------|----------------------|
|-15b17==(15)r----13-13----------|--------------13-13---|
|--------------------14--(14)-14-|-(14)----(14)-14------|
|--------------------------------|----------------------|
|--------------------------------|----------------------|
|--------------------------------|----------------------|


                             ~~~~~~
   Q   Q       Q   Q         Q       Q   Q       E      +E
|-------------------------|----------------------------------|
|-15--15pb17--15--15pb17--|-15pb17--15--15pb17--15b16==(15)r-|
|-------------------------|-15pb16---------------------------|
|-------------------------|----------------------------------|
|-------------------------|----------------------------------|
|-------------------------|----------------------------------|


   ~~~~~~~              ~~
   Q        +E.   T  T  Q   +E   E    Q  Q  E E Q
|-15-------(15)---------------------|---------------||
|-15pb17===(15)r-15-13--------------|---------------||
|----------------------14--(14)-(0)-|---------------||
|-------------------------------(0)-|-7--5----------||
|-----------------------------------|-------5-3-----||
|-----------------------------------|-----------5---||




Verse 1 + 2:

    Gtr I
           PM----------|   PM------------|   PM------------|   PM------|
    Q  E E E E E E   E E E E E E E E   E E E E E E E E   E E E E E E E E
||-----------------|-----------------|-----------------|------------------|
||o----5-5---------|-----5-----------|-----5-----------|-----5------------|
||-----5-5---------|-----5-----------|-----5-----------|-----5------------|
||--7--------7---7-|-5-7---7---7---7-|-5-7---7---7---7-|-5-7---7---7---7--|
||o-0------0---0---|---------0---0---|---------0---0---|---------0---0----|
||-----------------|-----------------|-----------------|------------------|
|
|   Gtr II
|   PM---------------------|           PM----------------------|
|   Q  Q   Q   Q     Q   E E Q   E E   Q   Q   Q   Q     Q   E E Q   Q
||-----------------|-----------------|-----------------|------------------|
||o----------------|-----------------|-----------------|------------------|
||-----------------|-----------------|-----------------|------------------|
||-----------------|-----------------|-----------------|------------------|
||o----------------|---------3---5p3-|-----------------|------------------|
||--5--5---5---5---|-3---5-5---------|-5---5---5---5---|-5---5-5-3---0----|
 |-Rhy Fig 1                                                end Rhy Fig 1-|

w/Rhy Fig 1
  PM|   PM------------|   PM------------|   PM------------|   PM------|
  E E E E E E E E   E E E E E E E E   E E E E E E E E   E E E E E E E E
|-----------------|-----------------|-----------------|-----------------|
|-----5-----------|-----5-----------|-----5-----------|-----5-----------|
|-----5-----------|-----5-----------|-----5-----------|-----5-----------|
|-5-7---7---7---7-|-5-7---7---7---7-|-5-7---7---7---7-|-5-7---7---7---7-|
|---------0---0---|---------0---0---|---------0---0---|---------0---0---|
|-----------------|-----------------|-----------------|-----------------|



  PM|       PM------------|       PM---------
  E E E     E E E E E   E E E     E E E E E
|---------------------|---------------------|
|-----6b6.5-----------|-----6b6.5-----------|
|-5-7-------7---7---7-|-5-7-------7---7---7-|
|-------------0---0---|-------------0---0---|
|---------------------|---------------------|
|---------------------|---------------------|
|
| PM------------------------------|
| Q   Q       Q   Q     Q   E     E Q   E E
|---------------------|---------------------|
|---------------------|---------------------|
|---------------------|---------------------|
|---------------------|-------------3---5p3-|
|-5---5-------5---5---|-3---5-----5---------|
|---------------------|---------------------|


 ---|       PM------------|       PM-------|
  E E E     E E E E E   E E E     E E E E  E
|---------------------|----------------------|
|-----6b6.5-----------|-----6b6.5------------|
|-5-7-------7---7---7-|-5-7-------7---7----7-|
|-------------0---0---|-------------0---0----|
|---------------------|----------------------|
|---------------------|----------------------|
|
| PM------------------------------|
| Q   Q       Q   Q     Q   E     E Q   Q
|---------------------|----------------------|
|---------------------|----------------------|
|---------------------|----------------------|
|---------------------|----------------------|
|-5---5-------5---5---|-5---5-----5----------|
|---------------------|-------------3S==x\---|

w/Rhy Fig 1
  PM|   PM------------|   PM------------|   PM------------|   PM------|
  E E E E E E E E   E E E E E E E E   E E E E E E E E   E E E E E E E E
|-----------------|-----------------|-----------------|-----------------||
|-----5-----------|-----5-----------|-----5-----------|-----5-----------||
|-----5-----------|-----5-----------|-----5-----------|-----5-----------||
|-5-7---7---7---7-|-5-7---7---7---7-|-5-7---7---7---7-|-5-7---7---7---7-||
|---------0---0---|---------0---0---|---------0---0---|---------0---0---||
|-----------------|-----------------|-----------------|-----------------||




Chorus:

  q      q      q      q        q      q       q      q
|-7------7------7------7------|-7------7-------7------7------|
|-8b8.5--8b8.5--8b8.5--8b8.5--|-8b8.5--8b8.5---8b8.5--8b8.5--|
|-----------------------------|------------------------------|
|-----------------------------|------------------------------|
|-----------------------------|------------------------------|
|-----------------------------|------------------------------|
|
| Q      Q      Q      Q        Q      E     E Q      Q
|-----------------------------|------------------------------|
|-8------8------8------8------|-8------8---------------------|
|-7------7------7------7------|-7------7-------5-------------|
|-6------6------6------6------|-6------6-------5------7\-----|
|-7------7------7------7------|-7------7-----7---------------|
|-----------------------------|------------------------------|


  q      q      q      q        e    E  +Q    H
|-5------5------5------5------|-5---------------------|
|-6b6.5--6b6.5--6b6.5--6b6.5--|-6---10-(10)\----------|
|-----------------------------|-----------------------|
|-----------------------------|-----------------------|
|-----------------------------|-----------------------|
|-----------------------------|-----------------------|
|
| Q      Q      Q      Q        S S  E   Q    Q.   E
|-----------------------------|-----------------------|
|-6------6------6------6------|-x-x-------------------|
|-5------5------5------5------|-x-x-------------------|
|-4------4------4------4------|-x-x-------------------|
|-5------5------5------5------|-x-x-------------------|
|-----------------------------|---------17\---3----x--|


                                          ~~~~~~~~~~~~~~~~~~~~~~~~
  E E E E E E E E   E E E E E E E E    Q  Q  Q  Q    Q    Q   Q      Q
|-----------------|-----------------|--------------|-----------------------||
|-----5-----------|-----5-----------|-/8--8--8--8--|-8----8---8------8\---o||
|-----5-----------|-----5-----------|-/9--9--9--9--|-9----9---9------9\----||
|-5-7---7---7---7-|-5-7---7---7---7-|--------------|-----------------------||
|---------0---0---|---------0---0---|--------------|----------------------o||
|-----------------|-----------------|--------------|-----------------------||
|
| Q   Q   Q   Q     Q   E E Q   Q      Q  Q  Q  Q    Q  a Q  +E   E  q
|-----------------|-----------------|--------------|-----------------------||
|-----------------|-----------------|--8--8--8--8--|-8--------------13----o||
|-----------------|-----------------|--7--7--7--7--|-7--7s9--(9)S14--------||
|-----------------|-----------------|--6--6--6--6--|-6---------------------||
|-----------------|---------3---5---|--7--7--7--7--|-7--------------------o||
|-5---5---5---5---|-3---5-5---------|--------------|-----------------------||




Guitar Solo:

           PM------------------------------------------------------------|
           E   E          E   E  E  E          E   E    E E  E E   E   E  E E
|----------------------------------------------------|------------------------|
|----------------------------------------------------|------------------------|
|----------------------------------------------------|----------------------5-|
|--------------7--------------7-----7--------------7-|----7----7-------7----5-|
|----------0--------------0------0-------------0-----|--0----0-----0------0---|
|----------------------------------------------------|------------------------|
|
|                                                            ~~
|  a      +Q      a      +Q      E  E  a      +Q        Q    Q    +E   E  Q
|----------------------------------------------------|------------------------|
|-15b17==(15)r---15b17==(15)r---15-13-15b17==(15)r---|-13----------------13---|
|----------------------------------------------------|------14---(14)-14------|
|----------------------------------------------------|------------------------|
|----------------------------------------------------|------------------------|
|----------------------------------------------------|------------------------|


           PM------------------------------------------------------------|
           E   E          E   E  E  E          E   E    E E  E E   E   E  E E
|----------------------------------------------------|------------------------|
|----------------------------------------------------|------------------------|
|----------------------------------------------------|----------------------5-|
|--------------7--------------7-----7--------------7-|----7----7-------7------|
|----------0--------------0------0-------------0-----|--0----0-----0------0---|
|----------------------------------------------------|------------------------|
|
|                                                            ~~
|  a      +Q      a      +Q      E  E  a      +Q        Q    Q    +E   E  Q
|----------------------------------------------------|------------------------|
|-15b17==(15)r---15b17==(15)r---15-13-15b17==(15)r---|-13----------------13---|
|----------------------------------------------------|------14---(14)-14------|
|----------------------------------------------------|------------------------|
|----------------------------------------------------|------------------------|
|----------------------------------------------------|------------------------|


           |--3--|          |--3--|  |--3---|          |--3--|
           E   E E          E   E E  E E    E          E   E E
|--------------------------------------------------------------|
|----------7----------------7--------7-----------------7-------|
|----------7p==5------------7p==5----7p5---------------7p==5---|
|----------------7----------------7---------7----------------7-|
|--------------------------------------------------------------|
|--------------------------------------------------------------|
|-Riff A                                            end Riff A-|
|
|  a      +Q        a      +Q        E    E    a      +Q
|--------------------------------------------------------------|
|-15b17==(15)r-----15b17==(15)r-----15---13---15b17==(15)r-----|
|--------------------------------------------------------------|
|--------------------------------------------------------------|
|--------------------------------------------------------------|
|--------------------------------------------------------------|


Riff A x3
          ~~~
                            |-3-|
   Q      Q      +E     E   E E E
|---------------------------5---5-|
|-13--------------------------5---|
|--------14-----(14)---14---------|
|---------------------------------|
|---------------------------------|
|---------------------------------|


         |--3--| |-----3------| |----3-----|   |-3-|
  a     +E   E E E a     +E   E E E a     +E   E E E
|------------5-8-5--------------8-5------------5-8-5-|
|-8b10==(8)r-------8b10==(8)r-5-----8b10==(8)r-------|
|----------------------------------------------------|
|----------------------------------------------------|
|----------------------------------------------------|
|----------------------------------------------------|

         |--3--| |-----3------|        |--3--| |-3-|
  a     +E   E E E a     +E   E a     +E   E E E E E
|------------5-8-5------------5------------5---5---5----|
|-8b10==(8)r-------8b10==(8)r---8b10==(8)r---5---5------|
|-------------------------------------------------------|
|-------------------------------------------------------|
|-------------------------------------------------------|
|-------------------------------------------------------|


         |---3---|  |--3--|       |---3---|    |--3--|
         E    E  E  E  E  E       E    E  E    E  E  E
|------------------------------------------------------|
|-------12---------12------------12-----------12-------|
|-------12p==10----12p10---------12p==10------12p10----|
|---------------12-------12--------------12---------12-|
|------------------------------------------------------|
|------------------------------------------------------|
|-Riff B                                    end Riff B-|
|                                 |---3---|
| a     +Q          Q       a    +E    E  E a  Q
|-8b10==(8)r--------8---------------------5------------|
|--------------------------------------5----8s10-------|
|---------------------------7b9==(7)r------------------|
|------------------------------------------------------|
|------------------------------------------------------|
|------------------------------------------------------|


w/Riff B x3
                                                   |---3---|
   E    E    a    +S  +S     E    +E     E    a    +E    E  E
|-----------------------------------------------------------5-|
|-------8--------------------------------5---------------5----|
|------------7b9==(7)r(7)p===5----(5)---------7b9==(7)r-------|
|-------------------------------------------------------------|
|-------------------------------------------------------------|
|-------------------------------------------------------------|


   |--3--|  |--3--|  |--3--|  |--3--|    |--3--|  |--3--|  |--3--|
   E  E  E  E  E  E  E  E  E  E  E  E    E  E  E  E  E  E  E  E  E  Q
|--8p=5-----8p=5-----8p=5-----8p=5----|--8p=5-----8p=5--------------------------|
|--------5--------5--------5--------5-|--------5--------5-----5----/x\----------|
|-------------------------------------|--------------------5-----5-/x\----------|
|-------------------------------------|-----------------------------------------|
|-------------------------------------|-----------------------------------------|
|-------------------------------------|-----------------------------------------|

w/Riff A x4
                                                                      ~~~
   a      +Q        a      +Q        E    E    a      +Q       Q      Q      
|-----------------------------------------------------------|-------------------------------|
|-15b17==(15)r-----15b17==(15)r-----15---13---15b17==(15)r--|-13------------------------13--|
|-----------------------------------------------------------|--------14-----(14)---14-------|
|-----------------------------------------------------------|-------------------------------|
|-----------------------------------------------------------|-------------------------------|
|-----------------------------------------------------------|-------------------------------|


                       ~~~~~~~                ~~~~~~~
   a      +Q      E    E         +Q      E    E
|--------------------------------------------15------|
|-15b17==(15)r---15---15pb17====(15)r---15---15pb17==|
|----------------------------------------------------|
|----------------------------------------------------|
|----------------------------------------------------|
|----------------------------------------------------|

   ~~~~~~~
   +Q      a       Q    +E     E    +S   +S     S    S
|-(15)------------15---(15)---15---(15)-----------------||
|=(15)r---15b17==(15)--(15)---15---(15)r(15)p==13-------||
|---------------------------------------------------14--||
|-------------------------------------------------------||
|-------------------------------------------------------||
|-------------------------------------------------------||

   Q               Q             Q     Q       Q   Q              Q             
|-------------------------------------------|----------------------------------------|
|--8---------------8-------------8-----8----|--8---8--------------8-------------8----|
|--7---------------7-------------7-----7----|--7---7--------------7-------------7----|
|--6---------------6-------------6-----6----|--6---6--------------6-------------6----|
|--7---------------7-------------7-----7----|--7---7--------------7-------------7----|
|-------------------------------------------|----------------------------------------|
|
|  E  a      +E   +Q     a      +Q    +Q       Q   E  a      +E   E  E  a       
|-------------------------------------------|-----------------------15---------15----|
|-13--------------------13-----(13)--(13)---|-13-----15b17==(15)r------15b17==(15)r--|
|----14b17==(14)-(14)r--14b17==(14)--(14)r--|-----14---------------------------------|
|-------------------------------------------|----------------------------------------|
|-------------------------------------------|----------------------------------------|
|-------------------------------------------|----------------------------------------|


           Q     Q       Q     Q      q    q      q     q
|---------------------------------|--------------------------|
|----------6-----6-------6-----6--|---6----6------6-----6----|
|----------5-----5-------5-----5--|---5----5------5-----5----|
|----------4-----4-------4-----4--|---4----4------4-----4----|
|----------5-----5-------5-----5--|---5----5------5-----5----|
|---------------------------------|--------------------------|
|
|                              ~~             ~~
|                                          |3-|
|  a       Q    +E    E  E  E  Q     +Q    E  Q  +E  E  Q
|---------15---(15)---------------|--------------------------|
|-15b17==(15)--(15)r-16s15p13-----|-------13-----------------|
|-----------------------------14--|-(14)-----14-(14)s4s13\---|
|---------------------------------|--------------------------|
|---------------------------------|--------------------------|
|---------------------------------|--------------------------|


w/Riff A x2
  |-3-|             |-3-|               |-3-|
  E E E S S   S   S E E E S S   S   S   E E E a    +Q       E     a    +Q         
|-5-----------------5-----------------|-5-----------------------------------------------|
|---8p5---------------8p5-------------|---8p5---------------8---------------------8-----|
|-------8p7p==5-----------8p7p==5-----|-------7b9==(7)-----(7)r---7b9==(7)-------(7)r---|
|-----------------7-----------------7-|-------------------------------------------------|
|-------------------------------------|-------------------------------------------------|
|-------------------------------------|-------------------------------------------------|


        |--3--|       |--3--|       |--3--|       |--3--|
        E   E E       E   E E       E   E E       E   E E
|---------------------------------------------------------|
|------/8---8-8-------8---8-8------/8---8-8-------8---8-8-|
|------/9---9-9-------9---9-9------/9---9-9-------9---9-9-|
|---------------------------------------------------------|
|---------------------------------------------------------|
|---------------------------------------------------------|
|
|
| a     Q       a     Q       a     Q       a     Q
|---------------------------------------------------------|
|-------8-------------8-------------8-------------8-------|
|-7b9==(7)r-----7b9==(7)r-----7b9==(7)r-----7b9==(7)r-----|
|---------------------------------------------------------|
|---------------------------------------------------------|
|---------------------------------------------------------|

        |--3--|       |--3--|  |-3-|       |--3--|
        E   E E       E   E E  E E E       E   E E
|-----------------------------------------------------||
|------/8---8-8-------8---8-8-/8-8-8-------8---8-8----||
|------/9---9-9-------9---9-9-/9-9-9-------9---9-9----||
|-----------------------------------------------------||
|-----------------------------------------------------||
|-----------------------------------------------------||
|
|                                          |--3--|
| a     Q       a     Q        Q     a    +E   E E
|----------------------------------------------5------||
|-------8-------------8--------8-----------------5----||
|-7b9==(7)r-----7b9==(7)r------7-----7b9==(7)r--------||
|-----------------------------------------------------||
|-----------------------------------------------------||
|-----------------------------------------------------||

   a      +Q     a      +Q          +H                +Q    Q        H
|-17-----(17)---17-----(17)--------(17)------|-------(17)---------------------------------|
|-20b22==(20)r--20b22==(20)--------(20)------|-------(20)r--------------------------------|
|--------------------------------------------|--------------------------------------------|
|--------------------------------------------|--------------------------------------------|
|--------------------------------------------|--------------------------------------------|
|--------------------------------------------|--------------------------------------------|
|-Riff C                                                               
|          ~~~~~                     ~~~~~             ~~~~~
|                                                                                 |--3--|
|  a      +Q             Q   a      +Q    Q    a      +Q    Q  a    +S  S E a    
|------------------------5----------------5--|--------------5---------------------------5-|
|--8b10===(8)r---------------8b10===(8)r-----|-8b10===(8)r----------------------------5---|
|--------------------------------------------|-----------------8pb9r(8)p5---7b9==(7)r-----|
|--------------------------------------------|----------------------------7---------------|
|--------------------------------------------|--------------------------------------------|
|--------------------------------------------|--------------------------------------------|


w/Riff C x3
          ~~~~~                    ~~~~~            ~~~~~
                                                          |-3-|                    |--3--|
   a     +Q             Q   a     +Q    Q    a     +Q    E E E a    +S  S E a    
|-----------------------5---------------5--|-------------5------------------------------5---|
|--8b10==(8)r---------------8b10==(8)r-----|-8b10==(8)r----8p5------------------------5-----|
|------------------------------------------|-------------------8pb9r(8)p5---7b9==(7)r-------|
|------------------------------------------|------------------------------7-----------------|
|------------------------------------------|------------------------------------------------|
|------------------------------------------|------------------------------------------------|


           ~~~~~                     ~~~~~               ~~~~~
                                          |-3-|               |-3-|              |----3-----|
   a      +Q             E  E a     +Q    E E E   a     +Q    E E E a    +S  
|-----------------------5----------------5-----|-------------5-------------------------------|
|--8b10==(8)r--------------5-8b10==(8)r----8p5-|-8b10==(8)r----8p5-------------------------5-|
|----------------------------------------------|-------------------8pb9r(8)p5---5-7b9=(7)r---|
|----------------------------------------------|------------------------------7--------------|
|----------------------------------------------|---------------------------------------------|
|----------------------------------------------|---------------------------------------------|


                                                                           ~~
        |--3--|    |-----3------|   |----3----|   |-3-|                             |--3--|
  a    +E   E E    E  a    +E   E   E E a    +E   E E E   a    +Q   +E  a  E  
|-------------------------------------------------------|------------------------------------|
|-----------5-8----5------------5---8p5-----------5-8p5-|-----------------------------13-15--|
|-7b9==(7)r-----------7b9==(7)r---------7b9==(7)r-------|-7b9==(7)r=(7)-9h12-(12)--14--------|
|-------------------------------------------------------|------------------------------------|
|-------------------------------------------------------|------------------------------------|
|-------------------------------------------------------|------------------------------------|


   a      +Q     a      +Q     +H              +Q                  Q       H
|-10-----(10)---10-----(10)---(10)----------|-(10)-------------------------------------|
|-13b15==(13)r--13b15==(13)---(13)----------|-(13)r------------------------------------|
|-------------------------------------------|------------------------------------------|
|-------------------------------------------|------------------------------------------|
|-------------------------------------------|------------------------------------------|
|-------------------------------------------|------------------------------------------|
|-Riff D                                                                    
|          ~~~~~                         ~~                                ~~
|                               |--3--|         |---3---|                      |--3--|
|  a      +Q            +Q      E  E  E  Q      E    E  E  a      +e    E  Q   
|-------------------------------------------|------------------------------------------|
|-15b17==(15)----------(15)r---15p13--------|-------13-15-15b17==(15)r-13--------13----|
|------------------------------------14-14--|--14-------------------------14--14----14-|
|-------------------------------------------|------------------------------------------|
|-------------------------------------------|------------------------------------------|
|-------------------------------------------|------------------------------------------|


w/Riff D
                  ~~~~
     E    a      +E        +Q      E   Q       +E      Q        Q   +E   E  E  
|---15---15b17==(15)------(15)r---15--15pb17r=(15)-|--15pb17===15r=(15)--------------------|
|--------------------------------------------------|-----------------------13-15b17==(15)--|
|--------------------------------------------------|--------------------14-----------------|
|--------------------------------------------------|---------------------------------------|
|--------------------------------------------------|---------------------------------------|
|--------------------------------------------------|---------------------------------------|


w/Riff C x2
                                                               ~~
                                |--3--|
          +Q     a      +Q      E  E  E  Q     a      +E    E  Q   +E   E  Q
|-------------------------------------------|---------------------------------|
|--------(15)r--15b17==(15)r---15p13----13--|-15b17==(15)r-13-----------------|
|------------------------------------14-----|-----------------14--(14)-14\----|
|-------------------------------------------|---------------------------------|
|-------------------------------------------|---------------------------------|
|-------------------------------------------|---------------------------------|



                                                                              ~~~        ~
        |--3--|   |------3------|   |----3-----|   |-3-|
  a    +E   E E   E  a     +E   E   E E a     +E   E E E   a     +Q    a     
|-----------5-8---5-------------5---8p5------------5-8p5-|-5-----(5)---5-----(5)--(5)------||
|-8b10=(8)r----------8b10==(8)r---------8b10==(8)r-------|-8b10==(8)r--8b10==(8)--(8)r-----||
|--------------------------------------------------------|-------------------------------9-||
|--------------------------------------------------------|---------------------------------||
|--------------------------------------------------------|---------------------------------||
|--------------------------------------------------------|---------------------------------||




Chorus:

  q  q  q  q    q  q  q  q    q  q  q  q    q   Q  H
|-------------|-------------|-------------|---------------|
|-8--8--8--8--|-8--8--8--8--|-6--6--6--6--|-6-------------|
|-7--7--7--7--|-7--7--7--7--|-5--5--5--5--|-5-------------|
|-6--6--6--6--|-6--6--6--6--|-4--4--4--4--|-4-------------|
|-7--7--7--7--|-7--7--7--7--|-5--5--5--5--|-5-------------|
|-------------|-------------|-------------|----17\--------|
|
|                                                  ~~
| q  q  q  q    q  q  Q  Q    q  q  q  q    q   Q  Q.   E
|-------------|-------------|-------------|---------------|
|-8--8--8--8--|-8--8--------|-6--6--6--6--|-6-------------|
|-7--7--7--7--|-7--7--5--7--|-5--5--5--5--|-5-------------|
|-x--x--x--x--|-x--x--5--7--|-x--x--x--x--|-x-------------|
|-7--7--7--7--|-7--7--------|-5--5--5--5--|-5-------------|
|-------------|-------------|-------------|----17S=3------|


  PM----------------|    PM----|
  Q  Q  E E E E   E E Q  E E E E   q  q  q  q    q  a    +Q   +E   +E   q
|---------------|----------------|-------------|-----------------------------|
|---------------|-----5----------|-8--8--8--8--|-8--5----(5)--(5)--(5)-------|
|---------------|-----5----------|-7--7--7--7--|-7--7b9==(7)--(7)r=(7)--5----|
|-7--7--7-7---7-|-5-7------7---7-|-6--6--6--6--|-6---------------------------|
|-0--0--0---0---|--------0---0---|-7--7--7--7--|-7---------------------------|
|---------------|----------------|-------------|-----------------------------|
|
| PM------------------|
| Q  Q  Q   Q     Q   Q  Q   Q     q  q  q  q    q  a    +Q   +Q        Q
|---------------|----------------|-------------|-----------------------------|
|---------------|----------------|-8--8--8--8--|-8--5----(5)--(5)------------|
|---------------|----------------|-7--7--7--7--|-7--7b9==(7)--(7)r-----------|
|---------------|----------------|-6--6--6--6--|-6---------------------------|
|---------------|--------3---5---|-7--7--7--7--|-7---------------------------|
|-5--5--5---5---|-5---5----------|-------------|-----------------------17\---|


w/Rhy Fig 1
  PM|    PM----------|   PM------------|   PM------------|   PM------|
  E E Q  E E E E   E E E E E E E E   E E E E E E E E   E E E E E E E E
|----------------|-----------------|-----------------|-----------------|
|-----5----------|-----5-----------|-----5-----------|-----5-----------|
|-----5----------|-----5-----------|-----5-----------|-----5-----------|
|----------7---7-|---7---7---7---7-|---7---7---7---7-|-5-7---7---7---7-|
|-0-0----0---0---|-0-------0---0---|-0-------0---0---|---------0---0---|
|----------------|-----------------|-----------------|-----------------|

w/Rhy Fig 1
  PM|   PM------------|   PM----|
  E E E E E E E E   E E E E E E E E
|-----------------|-----------------|
|-----5-----------|-----5---------5-|
|-----5-----------|-----5-----------|
|-5-7---7---7---7-|-5-7---7---7-----|
|---------0---0---|---------0---0---|
|-----------------|-----------------|


                    ~~~                 ~~~~~~~~~~~~~~
  a    +Q   +E     +E  +Q    Q    a    +Q   +Q    +E  +E    Q
|-------------------------------|------------------------------|
|-------------------------------|------------------------------|
|-7b9==(7)r=(7)b9==(7)-(7)r--7--|-7b9==(7)--(7)---(7)-(7)r/----|
|-------------------------------|------------------------------|
|-------------------------------|------------------------------|
|-------------------------------|------------------------------|


  PM|   PM------------|   PM------------|   PM------------|   PM--------|
  E E E E E E E E   E E E E E E E E   E E E E E E E E   E E E E E E  E  E
|-----5-----------|-----5-----------|-----5-----------|-----5-------------|
|-----6-----------|-----6-----------|-----6-----------|-----6-------------|
|-5-7---7---7---7-|-5-7---7---7---7-|-5-7---7---7---7-|-5-7---7---7-----7-|
|-----------------|-----------------|-----------------|-------------------|
|-----------------|-----------------|-----------------|-------------------|
|-----------------|-----------------|-----------------|-------------------|
|
|     PM------------------|           PM--------------------|
| Q   Q   Q   Q     Q   E E Q   Q     Q   Q   Q   Q     Q   Q   Q    Q
|-----------------|-----------------|-----------------|-------------------|
|-6---------------|-----------------|-----------------|-------------------|
|-5---------------|---------3-------|-----------------|-------------------|
|-4---------------|---------3---5---|-----------------|-------------------|
|-5---5---5---5---|-5---5-5---------|-5---5---5---5---|-5---5-------------|
|-----------------|-----------------|-----------------|---------3---15\---|

w/Rhy Fig 1
  PM|   PM------------|   PM----|
                                            |--3--| |-----3-----| |----3----|   |-3-|
  E E E E E E E E   E E E E E E E E   a    +E   E E E a    +E   E E E a    +E   E E E
|-----------------|-----------------|-------------------------------------------------|
|-----5-----------|-----5---------5-|-----------5-8-5-----------5-8p5-----------5-8p5-|
|-----5-----------|-----5-----------|-7b9==(7)r-------7b9==(7)r-------7b9==(7)r-------|
|-5-7---7---7---7-|-5-7---7---7-----|-------------------------------------------------|
|---------0---0---|---------0---0---|-------------------------------------------------|
|-----------------|-----------------|-------------------------------------------------|


        |--3--| |------3------| |----3----|   |-3-|
  a    +E   E E E a    +E     E E E a    +E   E E E
|---------------------------------------------------||
|-----------5-8-5-------------5-8p5-----------5-8p5-||
|-7b9==(7)r-------7b9==(7)r---------7b9==(7)r-------||
|---------------------------------------------------||
|---------------------------------------------------||
|---------------------------------------------------||




Out-Chorus:
                                                       ~~~~~~~~
  q  q  q  q    q  q  q  q    q  q  q  q    e  a      +E   +Q    +H
|-------------|-------------|-------------|------------------------------|
|-8--8--8--8--|-8--8--8--8--|-6--6--6--6--|-6-15b17==(15)-(15)--(15)r----|
|-7--7--7--7--|-7--7--7--7--|-5--5--5--5--|-5----------------------------|
|-6--6--6--6--|-6--6--6--6--|-4--4--4--4--|-4----------------------------|
|-7--7--7--7--|-7--7--7--7--|-5--5--5--5--|-5----------------------------|
|-------------|-------------|-------------|------------------------------|
|
|                                                                 ~~~~~
| q  q  q  q    q  q  Q  Q    q  q  q  q    q               Q     H
|-------------|-------------|-------------|------------------------------|
|-8--8--8--8--|-8--8--------|-6--6--6--6--|-6----------------------------|
|-7--7--7--7--|-7--7--5--7--|-5--5--5--5--|-5----------------------------|
|-6--6--6--6--|-6--6--5--7--|-4--4--4--4--|-4----------------------------|
|-7--7--7--7--|-7--7--------|-5--5--5--5--|-5----------------------------|
|-------------|-------------|-------------|----------------17\----3------|

w/Rhy Fig 1 (1st 2 bars)
  PM----|   PM------|
  Q  Q  E E Q    Q  Q  Q  Q
|--------------|-------------|
|---------5----|-------------|
|---------5----|-------5--7--|
|-7--7--7---7--|-7--7--5--7--|
|-0--0--0---0--|-0--0--------|
|--------------|-------------|


                                          |--3---|
  a     Q    Q  E E a     Q      Q  a    +E  +E  E E  E  Q
|------------------------------|----------------------------|
|-5-----5----5--5-8-5-----5----|-5-----------------------5--|
|-7b9==(7)r--9--9---7b9==(7)r--|-9--7b9==(7)r(7)p5-------5--|
|------------------------------|-------------------7--7-----|
|------------------------------|----------------------------|
|------------------------------|----------------------------|
|
|       q    q  q         q      q        q        e  E  q
|------------------------------|----------------------------|
|-------8----8--8---------8----|-8--------8--------8----13--|
|-------7----7--7---------7----|-7--------7--------7-14-----|
|-------6----6--6---------6----|-6--------6--------6--------|
|-------7----7--7---------7----|-7--------7--------7--------|
|------------------------------|----------------------------|


                             ~~~
   a      +Q    +E   +E   S  E.  +E   E     Q.   E   Q      Q
|---------------------------------------|----------------------|
|---------------------------------------|----------------------|
|--7b9====(7)---(7)r=(7)--5-------------|------------5------7--|
|----------------------------7---(7)--7-|---7----7-------------|
|---------------------------------------|----------------------|
|---------------------------------------|----------------------|
|
|          ~~~~              ~~~      ~~~~~~~~~
|  a      +Q    +Q        S  E.  +E   E    +H       +E   E  q
|---------------------------------------|----------------------|
|-15b17==(15)--(15)r-----13-------------|------------------13--|
|---------------------------14--(14)-14-|-(14)-----(14)-14-----|
|---------------------------------------|----------------------|
|---------------------------------------|----------------------|
|---------------------------------------|----------------------|


                             ~~~
   a      +Q    +E   +E   S  E.  +E   E     Q.   E   Q      Q
|---------------------------------------|----------------------|
|---------------------------------------|----------------------|
|--7b9====(7)---(7)r=(7)--5-------------|------------5------7--|
|----------------------------7---(7)--7-|---7----7-------------|
|---------------------------------------|----------------------|
|---------------------------------------|----------------------|
|
|          ~~~~              ~~~      ~~~~~~~~~
|  a      +Q    +Q        S  E.  +E   E    +H       +E   E  q
|---------------------------------------|----------------------|
|-15b17==(15)--(15)r-----13-------------|------------------13--|
|---------------------------14--(14)-14-|-(14)-----(14)-14-----|
|---------------------------------------|----------------------|
|---------------------------------------|----------------------|
|---------------------------------------|----------------------|


   ~~~~~~      ~~~~~~       ~~~~~~      ~~~~~~
   Q       Q   Q      Q     Q       Q   Q       Q
|------------------------|-------------------------|
|------------------------|-------------------------|
|--7pb9----7---7pb9---7--|--7pb9----7---7pb9----7--|
|------------------------|-------------------------|
|------------------------|-------------------------|
|------------------------|-------------------------|
|
|  ~~~~~~      ~~~~~~       ~~~~~~      ~~~~~~
|  Q       Q   Q      Q     Q       Q   Q       Q
|------------------------|-------------------------|
|-15pb17--15--15pb17-----|-15pb17--15--15pb17--15--|
|------------------------|-------------------------|
|------------------------|-------------------------|
|------------------------|-------------------------|
|------------------------|-------------------------|


   a     +Q.          +E          H           W                 W           W
|-------------------------------------------|----------------:-----------:---------------*|
|-------------------------------------------|----------------:-----------:---------------*|
|--7b9===(7)r=========(7)-------------------|----------------:-----------:---------------*|
|-------------------------------------------|----------------:-----------:---------------*|
|-------------------------------------------|----------------:-----------:---------------*|
|-------------------------------------------|----------------:-----------:---------------*|
|
|                                                         ~
|  a     +Q    +S   S  E   a     +Q.   +E     Q  Q  a E E Q    +W          +H     
|-------------------------------------------|----------------:-----------:--------5------*|
|-15b17=(15)r=(15)p13-----------------------|----------------:-----------:--------5------*|
|---------------------14--14b17=(14)r=(14)\-|-7--5-----------:-----------:--------5------*|
|-------------------------------------------|-7--5-----------:-----------:---------------*|
|-------------------------------------------|-------7s5-3----:-----------:---------------*|
|-------------------------------------------|-------------5--:-(5)-------:-(5)-----------*|

comments
print report bad tab
I want to post or [tab]
guest
You may want to rate the tab now too:
select rating
Please do not post tabs as comments. Select "correction" instead!