Oops, an error
Loading. Please wait.

We Are Young Bass Tab

by Fun
ver1
ver1

Whole song

More versions @911Tabs.com
44,018 views 99 this week
no commentswrite comment
1 2 3 4 5
excellent!
x 14
Autoscroll
+/-
esc
set tempo
stop
Contributor
Difficulty
intermediate
WARNING: You are trying to view
                                    content from Ultimate-Guitar.com
                                    in an unauthorized application,
                                    which is prohibited.

                                    Please use an official Ultimate
                                    Guitar Tabs application for iPhone,
                                    iPad or Android to access legitimate
                                    chords, guitar, bass, and drum tabs
                                    from Ultimate-Guitar.com database.

                                    Type "ultimate guitar tabs" in Apple
                                    App Store's or Android Market's
                                    search to find the application.
Several people requests tabs for this song on my bass cover of this song so I'm 
posting them up here. Enjoy!

Check out my bass cover of this song!

http://www.youtube.com/watch?v=ZKdRL9t0kaE

Check out my channel for more bass covers!

http://www.youtube.com/user/chrisistheazn


In my bass cover of this song I did play in Verse 1 and Pre-Chorus 1 so I tabbed 
those out at the bottom of this page if you want to look at that :p

Verse 1

     No Bass

Pre-Chorus 1
     
     No Bass

Chorus 1 (Comes in at 0:49)

G|---------------------------------------------------------------------------|
D|---------------------------------------------------------------------------|
A|--------------------------8-8-7-7-5-5-5-5-5-5-5-5-5-5-5-5-5-5-7-8----------|
E|-1-1-1-1-1-1-1-1-1-1-1-1-------------------------5-------------------------|

G|---------------------------------------------------------------------------|
D|---------------------------------------------------------------------------|
A|-1-1-1-1-1-1-1-1-5-5-13-13-13-13-13-13-------------------------------------|
E|---------------------------------------8-8-8-8-8-8-8-8-8-8-8-8-8-8-8-8-8---|

G|---------------------------------------------------------------------------|
D|---------------------------------------------------------------------------|
A|--------------------------8-8-7-7-5-5-5-5-5-5-5-5-5-5-5-5-5-5-7-8----------|
E|-1-1-1-1-1-1-1-1-1-1-1-1-------------------------5-------------------------|

G|---------------------------------------------------------------------------|
D|---------------------------------------------------------------------------|
A|-1-1-1-1-1-1-1-1-5-5-13-13-13-13-13-13-------------------------------------|
E|---------------------------------------8-8-8-8-8-8-8-8-8--------------------|

Verse 2

G|---------------------------------------------------------------------------|
D|---------------------------------------------------------------------------|
A|-------------------------8-8-7-7-5-5-5-5-5-5-5-5-5-5-5-5-5-5-7-8-----------|
E|-1-1-------------1-1----------------------------5--------------------------|

G|---------------------------------------------------------------------------|
D|---------------------------------------------------------------------------|
A|---------------------------------1-1-1-1-1-1-1-1-3---5---7---10------------|
E|-3-3-------------3-3-------------------------------------------------------|

Chorus 2

     Same as Chorus 1

Bridge Part 1

G|---------------------------------------------------------------------------|
D|---------------------------------------------------------------------------|
A|-8---8---8-10-12-8-13---13---13-15-17-15-----------------------------------|
E|---------------------------------------------------------------------------|

G|---------------------------------------------------------------------------|
D|---------------------------------------------------------------------------|
A|-12---12---12-15-12-10-15---15---12-15-12-10-------------------------------|
E|---------------------------------------------------------------------------|

G|---------------------------------------------------------------------------|
D|---------------------------------------------------------------------------|
A|-8---8---8-10-12-8-13---13---13-15-17-15-----------------------------------|
E|---------------------------------------------------------------------------|

G|---------------------------------------------------------------------------|
D|---------------------------------------------------------------------------|
A|-12---12---12-15-12-10-3---5---7---10--------------------------------------|
E|---------------------------------------------------------------------------|

G|---------------------------------------------------------------------------|
D|---------------------------------------------------------------------------|
A|-8---8---8-10-12-8-13---13---13-15-17-15-----------------------------------|
E|---------------------------------------------------------------------------|

G|---------------------------------------------------------------------------|
D|---------------------------------------------------------------------------|
A|-12---12---12-15-12-10-15---15---12-15-12-10-------------------------------|
E|---------------------------------------------------------------------------|

G|---------------------------------------------------------------------------|
D|---------------------------------------------------------------------------|
A|-8---8---8-10-12-8-13---13---13-15-17-15-----------------------------------|
E|---------------------------------------------------------------------------|

G|---------------------------------------------------------------------------|
D|---------------------------------------------------------------------------|
A|-12---12---12-15-12-10-3---5---7---10--------------------------------------|
E|---------------------------------------------------------------------------|

Bridge Part 2

     No Bass

Chorus 3

     Same as Chorus 1

Outro

G|-3-------5-------10---9----7-------7-------9--------5----------------------|
D|-5-------7-------12---10---8-------8-------10-------7----------------------|
A|----------------------------------------------------8----------------------|
E|---------------------------------------------------------------------------|


In my bass cover of this song I did play my own little riffs in Verse 1 and Pre-
Chorus 1 so I'm going to post them here

Verse 1

G|-14---------------14---------------15---------------7-------8--------------|
D|-15---------------12---------------17---------------8-------10-------------|
A|---------------------------------------------------------------------------|
E|---------------------------------------------------------------------------|

G|-17p14----17p14----17p14----17p14----17p14----14---------------------------|
D|-------15-------15-------15-------15-------15------------------------------|
A|---------------------------------------------------------------------------|
E|---------------------------------------------------------------------------|

G|-17p14----17p14----17p14----17p14----17p14---------------------------------|
D|-------15-------15-------15-------15-------15------------------------------|
A|---------------------------------------------------------------------------|
E|---------------------------------------------------------------------------|

G|-14p10----14p10----14p10----14p10----14p10----10---------------------------|
D|-------12-------12-------12-------12-------12------------------------------|
A|---------------------------------------------------------------------------|
E|---------------------------------------------------------------------------|

G|-14p10----14p10----14p10----14p10----14p10---------------------------------|
D|-------12-------12-------12-------12-------12------------------------------|
A|---------------------------------------------------------------------------|
E|---------------------------------------------------------------------------|

G|-19p17----19p17----19p17----19p17----19p17----17---------------------------|
D|-------15-------15-------15-------15-------15------------------------------|
A|---------------------------------------------------------------------------|
E|---------------------------------------------------------------------------|

G|-19p17----19p17----19p17----19p17----19p17---------------------------------|
D|-------15-------15-------15-------15-------15------------------------------|
A|---------------------------------------------------------------------------|
E|---------------------------------------------------------------------------|

G|-10p7---10p7---10p7---10p7---10p7------------------------------------------|
D|------8------8------8------8------8----------------------------------------|
A|---------------------------------------------------------------------------|
E|---------------------------------------------------------------------------|

G|-12p9----12p9----12p9----12p9----12p9--------------------------------------|
D|------10------10------10------10------10-----------------------------------|
A|---------------------------------------------------------------------------|
E|---------------------------------------------------------------------------|

Pre-Chorus 1

G|-3-------5-------10---9----7-------7-------9-------------------------------|
D|-5-------7-------12---10---8-------8-------10------------------------------|
A|---------------------------------------------------------------------------|
E|---------------------------------------------------------------------------|




| /  slide up
| \  slide down
| h  hammer-on
| p  pull-off
| ~  vibrato
| +  harmonic
| x  Mute note
I want to post or [tab]
guest
You may want to rate the tab now too:
select rating
Please do not post tabs as comments. Select "correction" instead!