Oops, an error
Loading. Please wait.

Bullet Theory Tab

ver5
ver5
More versions @911Tabs.com
1,426 views 1 this week
1 commentread comment
1 2 3 4 5
accurate
x 1
Autoscroll
+/-
esc
set tempo
stop
Contributor
Tuning
D A D G B E
Hey! There's an official Ultimate Guitar app which is ideal
for learning songs when you're away from computer. Get the app
WARNING: You are trying to view
                                    content from Ultimate-Guitar.com
                                    in an unauthorized application,
                                    which is prohibited.

                                    Please use an official Ultimate
                                    Guitar Tabs application for iPhone,
                                    iPad or Android to access legitimate
                                    chords, guitar, bass, and drum tabs
                                    from Ultimate-Guitar.com database.

                                    Type "ultimate guitar tabs" in Apple
                                    App Store's or Android Market's
                                    search to find the application.
Bullet Theory - Funeral for a Friend
Dropped Db tuning

Most of the tabs I’ve seen for this song have been way off. I’m pretty sure this tab is 
to 100% correct.


   Intro
   Guitar 1
eb|-------------------------|-------------------------|-------------------------|-------------------------|
Bb|-------------------------|-------------------------|-------------------------|-------------------------|
Gb|-10-10-10--9--9--9-------|--------------9-----9----|-------------------------|-------------------------|
Db|-------------------10-10-|-10-10-10-10-10-10-10----|-10-10-10-12-12-12--0--0-|--0--0--0--0--0--0--0--0-|
Ab|-------------------------|----------------------12-|-------------------------|-------------------------|
Db|-------------------------|-------------------------|-------------------------|-------------------------|
  |PM-----------------------------------|    PM    PM-------------------|                
                |
  |Guitar 2                                                                              
                |
eb|-------------------------|-------------------------|-------------------------|-------------------------|
Bb|-------------------------|-------------------------|-------------------10-10-|-10-10-10-10-10-10-10-10-|
Gb|-------------------------|-------------------------|--------------------x--x-|--x--x--x--x--x--x--x--x-|
Db|-------------------------|-------------------------|--------------------7--7-|--7--7--7--7--7--7--7--7-|
Ab|-------------------------|-------------------------|-------------------------|-------------------------|
Db|-------------------------|-------------------------|-------------------------|-------------------------|

   Guitar 1
eb|-------------------------|-------------------------|-------------------------|-------------------------|
Bb|-------------------------|-------------------------|-------------------------|-------------------------|
Gb|-10-10-10--9--9--9-------|--9-----9-----9-----9--0-|-------------------------|-------------------------|
Db|-------------------10-10-|-10-10-10-10-10-10-10----|-10-10-10-12-12-12--0--0-|--0--0--0--0--0--0--0--0-|
Ab|-------------------------|-------------------------|-------------------------|--0--0--0--0--0--0--0--0-|
Db|-------------------------|-------------------------|-------------------------|-------------------------|
  |PM---------------------|      PM    PM    PM                                          
                |
  |Guitar 2                                             gets gradually louder            
                |
eb|-------------------------|-------------------------|-------------------------|-------------------------|
Bb|-10-10-10-10-10-10-10-10-|-10-10-10-10-10-10-10-10-|-10-10-10-10-10-10-10-10-|-10-10-10-10-10-10-10-10-|
Gb|--x--x--x--x--x--x--x--x-|--x--x--x--x--x--x--x--x-|--x--x--x--x--x--x--7--7-|--7--7--7--7--7--7--7--7-|
Db|--7--7--7--7--7--7--7--7-|--7--7--7--7--7--7--7--7-|--7--7--7--7--7--7--7--7-|--7--7--7--7--7--7--7--7-|
Ab|-------------------------|-------------------------|-------------------------|-------------------------|
Db|-------------------------|-------------------------|-------------------------|-------------------------|

   Pre-Verse
   Guitar 1
eb|-------------------------|-------------------------|-------------------------|-------------------------|
Bb|-------------------------|-------------------------|-------------------------|----------------------10-|
Gb|-10-10-10--9--9--9-------|--------------9-----9----|-------------------------|-----10p9--------9h10----|
Db|-------------------10-10-|-10-10-10-10----10----12-|-10--10--10--12--12--12--|----------10-------------|
Ab|-------------------------|-------------------------|------------------------0|-(0)---------12----------|
Db|-------------------------|-------------------------|-------------------------|-------------------------|
  |Guitar 2                                                                              
                |
eb|-------------------------|-------------------------|-------------------------|-------------------------|
Bb|-------------------------|-------------------------|-------------------------|-------------------------|
Gb|-------------------------|-------------------------|-------------------------|-------------------------|
Db|-10-------10--------5----|-(5)-5-----5-----5-----0-|--5---5---5---5---x---x-0|--(0)-0----0-----0-----0-|
Ab|--8--------8--0--0--3----|-(3)-3-----3-----3-----0-|--3---3---3---3---x---x-0|--(0)-0----0-----0-----0-|
Db|--8--------8--0--0--3----|-(3)-3-----3-----3-----0-|--3---3---3---3---x---x-0|--(0)-0----0-----0-----0-|
                 PM-|
   Guitar 1
eb|-------------------------|-------------------------|-------------------------|-------------------------|
Bb|-------------------------|-------------------------|-------------------------|-------------------------|
Gb|-10-10-10--9--9--9-------|--------------9-----9----|-------------------------|-------------------------|
Db|-------------------10-10-|-10-10-10-10----10----12-|-10--10--10--12--12--12-0|-(0)~--------------------|
Ab|-------------------------|-------------------------|------------------------0|-(0)~--------------------|
Db|-------------------------|-------------------------|------------------------0|-(0)~--------------------|
  |Guitar 2                                                                              
                |
eb|-------------------------|-------------------------|-------------------------|-------------------------|
Bb|-------------------------|-------------------------|-------------------------|-------------------------|
Gb|-------------------------|-------------------------|-------------------------|-------------------------|
Db|-10-------10--------5----|-(5)-5-----5-----5-----0-|--5---5---5---5---x---x-0|--(0)--------------------|
Ab|--8--------8--0--0--3----|-(3)-3-----3-----3-----0-|--3---3---3---3---x---x-0|--(0)--------------------|
Db|--8--------8--0--0--3----|-(3)-3-----3-----3-----0-|--3---3---3---3---x---x-0|--(0)--------------------|
                 PM-|
   Verse
   Guitar 1
eb|-------------------------|-------------------------|-------------------------|-------------------------|
Bb|-------------------------|-------------------------|-------------------------|-------------------------|
Gb|-----------7--------5----|-----7--------5-----7----|-----------7--------5----|-----7--------7/9--9--9--|
Db|-------------------------|-------------------------|-------------------------|-------------------------|
Ab|--5--5--5-----5--5-----5-|--5-----5--5-----5-------|--5--5--5-----5--5-----5-|--5-----5--5-------------|
Db|-------------------------|-------------------------|-------------------------|-------------------------|
  |PM------|     PM-|     PM---|     PM-|     PM         PM----|     PM-|     PM---|     
            |
  |Guitar 2                                                                              
                |
eb|-------------------------|-------------------------|-------------------------|--|
Bb|-------------------------|-------------------------|-------------------------|--|
Gb|-------------------------|-------------------------|-------------------------|--|
Db|-----------0-------------|-------------------------|--------0----------------|--|
Ab|--0--0--0--0-------------|-------------------------|--0--0--0----------------|--|
Db|--0--0--0--0-------------|-------------------------|--0--0--0----------------|--|
     PM-------|                                          PM------------------------|

Guitar 1
eb|-------------------------|-------------------------|-------------------------|-------------------------|
Bb|-------------------------|-------------------------|-------------------------|-------------------------|
Gb|-----------7--------5----|-----7--------5-----7----|-----------7--------5----|-----7--------7-/9--9--9-|
Db|-------------------------|-------------------------|-------------------------|-------------------------|
Ab|--5--5--5-----5--5-----5-|--5-----5--5-----5-------|--5--5--5-----5--5-----5-|--5-----5--5-------------|
Db|-------------------------|-------------------------|-------------------------|-------------------------|
  |  PM----|     PM-|     PM---|     PM-|     PM         PM----|     PM-|     PM---|     
            |
  |Guitar 2                                                                              
                |
eb|-------------------------|-------------------------|-------------------------|--------------------------|
Bb|-------------------------|-------------------------|-------------------------|--------------------------|
Gb|-------------------------|-------------------------|-------------------------|--------------------------|
Db|--------9--9-----9--9----|-------------------------|--------9--------9-------|--9--------9--9--9--9--9--|
Ab|--0--0--7--7-----7--7----|-------------------------|--0--0--7--0--0--7--0--0-|--7--0--0--7--7--7--7--7--|
Db|--0--0--7--0-----7--0----|-------------------------|--0--0--7--0--0--7--0--0-|--7--0--0--7--7--7--7--7--|
     PM-|  NH-|     NH-|                                 PM-|  NH PM-|  NH PM-|    NH 
 NH-------------|

   Pre-Chorus
   Guitar 1
eb|-------------------------|-------------------------|-------------------------|-------------------------||
Bb|o------------------------|-------------------------|-------------------------|------------------------o||
Gb|-----------7--------5----|-----7--------5-----7----|-----------7--------5----|-----7--------7-/9--9--9-||
Db|-------------------------|-------------------------|-------------------------|-------------------------||
Ab|o-5--5--5-----5--5-----5-|--5-----5--5-----5-------|--5--5--5-----5--5-----5-|--5-----5--5------------o||
Db|-------------------------|-------------------------|-------------------------|-------------------------||
  |  PM----|     PM-|     PM---|     PM-|     PM         PM----|     PM-|     PM---|     
            ||
  |Guitar 2                                                                              
                ||
eb|-------------------------|-------------------------|-------------------------|-------------------------||
Bb|o------------------------|-------------------------|-------------------------|------------------------o||
Gb|-------------------------|-------------------------|-------------------------|-------------------------||
Db|-----3--5-----3--5-----5-|--7-----5--7-----7--8--7-|-----3--5-----3--5-----5-|--7-----5--7-----7--8--7-||
Ab|o-1--------3--------3----|-----5--------5----------|--1--------3--------3----|-----5--------5---------o||
Db|-------------------------|-------------------------|-------------------------|-------------------------||

   Chorus
   Guitar 1
eb|-------------------------|-------------------------|-------------------------|-------------------------|
Bb|-------------------------|-------------------------|-------------------------|----------------------10-|
Gb|-10-10-10--9--9--9-------|--------------9-----9----|-------------------------|-----10p9--------9h10----|
Db|-------------------10-10-|-10-10-10-10----10----12-|-10--10--10--12--12--12--|----------10-------------|
Ab|-------------------------|-------------------------|------------------------0|-(0)---------12----------|
Db|-------------------------|-------------------------|-------------------------|-------------------------|
  |Guitar 2                                                                              
                |
eb|-------------------------|-------------------------|-------------------------|-------------------------|
Bb|-------------------------|-------------------------|-------------------------|-------------------------|
Gb|-------------------------|-------------------------|--5---5---5---5-------5--|-------------------------|
Db|-10-------10--------5----|-(5)-5-----5-----5-----0-|--5---5---5---5---5---5-0|--(0)-0-0--0--0-----0--0-|
Ab|--8--------8--0--0--3----|-(3)-3-----3-----3-----0-|--3---3---3---3---3---3-0|--(0)-0-0--0--0-----0--0-|
Db|--8--------8--0--0--3----|-(3)-3-----3-----3-----0-|------------------------0|--(0)-0-0--0--0-----0--0-|
                 PM-|                                                    PM
   Guitar 1
eb|-------------------------|-------------------------|-------------------------|-------------------------|
Bb|-------------------------|-------------------------|-------------------------|-------------------------|
Gb|-10-10-10--9--9--9-------|--------------9-----9----|-------------------------|-------------------------|
Db|-------------------10-10-|-10-10-10-10----10----12-|10--10--10--12--12--12-12|-(12)--------------------|
Ab|-------------------------|-------------------------|-------------------------|-------------------------|
Db|-------------------------|-------------------------|-------------------------|-------------------------|
  |Guitar 2
eb|-------------------------|-------------------------|-------------------------|-------------------------|
Bb|-------------------------|-------------------------|-------------------------|-------------------------|
Gb|-------------------------|-------------------------|--5---5---5---5-------5--|-------------------------|
Db|-10-------10--------5----|-(5)-5-----5-----5-----0-|--5---5---5---5---5---5-0|--(0)--------------------|
Ab|--8--------8--0--0--3----|-(3)-3-----3-----3-----0-|--3---3---3---3---3---3-0|--(0)--------------------|
Db|--8--------8--0--0--3----|-(3)-3-----3-----3-----0-|------------------------0|--(0)--------------------|
                 PM-|                                                    PM

Play the verse and pre-chorus again.

   Chorus
   Guitar 1                                                                              
              3x
eb|-------------------------|-------------------------|-------------------------|-------------------------||
Bb|o------------------------|-------------------------|-------------------------|----------------------10o||
Gb|-10-10-10--9--9--9-------|--------------9-----9----|-------------------------|-----10p9--------9h10----||
Db|-------------------10-10-|-10-10-10-10----10----12-|-10--10--10--12--12--12--|----------10-------------||
Ab|o------------------------|-------------------------|------------------------0|-(0)---------12---------o||
Db|-------------------------|-------------------------|-------------------------|-------------------------||
  |Guitar 2                                                                              
              3x||
eb|-------------------------|-------------------------|-------------------------|-------------------------||
Bb|o------------------------|-------------------------|-------------------------|------------------------o||
Gb|-------------------------|-------------------------|--5---5---5---5-------5--|-------------------------||
Db|-10-------10--------5----|-(5)-5-----5-----5-----0-|--5---5---5---5---5---5-0|--(0)-0-0--0--0-----0--0-||
Ab|o-8--------8--0--0--3----|-(3)-3-----3-----3-----0-|--3---3---3---3---3---3-0|--(0)-0-0--0--0-----0--0o||
Db|--8--------8--0--0--3----|-(3)-3-----3-----3-----0-|------------------------0|--(0)-0-0--0--0-----0--0-||
                 PM-|                                                    PM
   Guitar 1
eb|-------------------------|-------------------------|-------------------------|-------------------------|
Bb|-------------------------|-------------------------|-------------------------|-------------------------|
Gb|-10-10-10--9--9--9-------|--------------9-----9----|-------------------------|-------------------------|
Db|-------------------10-10-|-10-10-10-10----10----12-|10--10--10--12--12--12-12|-(12)--------------------|
Ab|-------------------------|-------------------------|-------------------------|-------------------------|
Db|-------------------------|-------------------------|-------------------------|-------------------------|
  |Guitar 2                                                                              
                |
eb|-------------------------|-------------------------|-------------------------|-------------------------|
Bb|-------------------------|-------------------------|-------------------------|-------------------------|
Gb|-------------------------|-------------------------|--5---5---5---5-------5--|-------------------------|
Db|-10-------10--------5----|-(5)-5-----5-----5-----0-|--5---5---5---5---5---5-0|--(0)--------------------|
Ab|--8--------8--0--0--3----|-(3)-3-----3-----3-----0-|--3---3---3---3---3---3-0|--(0)--------------------|
Db|--8--------8--0--0--3----|-(3)-3-----3-----3-----0-|------------------------0|--(0)--------------------|
                 PM-|                                                    PM

   Bridge
   Guitar 1
eb|-------------------------|-------------------------|-------------------------|-------------------------|
Bb|-------------------------|-------------------------|-------------------------|-------------------------|
Gb|-------------------------|-------------------------|-------------------------|-------------------------|
Db|--0----------------------|-(0)---------------------|--0----------------------|-(0)---------------------|
Ab|--0----------------------|-(0)---------------------|--0----------------------|-(0)---------------------|
Db|--0----------------------|-(0)---------------------|--0----------------------|-(0)---------------------|
  |Guitar 2                                                                              
                |
eb|-------------------------|-------------------------|-------------------------|-------------------------|
Bb|-------------------------|-------------------------|-------------------------|-------------------------|
Gb|-------------------------|-------------------------|-------------------------|-------------------------|
Db|--0----------------------|-(0)---------------------|--0----------------------|-(0)---------------------|
Ab|--0----------------------|-(0)---------------------|--0----------------------|-(0)---------------------|
Db|--0----------------------|-(0)---------------------|--0----------------------|-(0)---------------------|

   Guitar 1
eb|-10----------------------|-(10)--------------------|-(10)--------------------|-(10)--------------------|
Bb|-------------------------|-------------------------|-------------------------|-------------------------|
Gb|-------------------------|-------------------------|-------------------------|-------------------------|
Db|-------------------------|-------------------------|-------------------------|-------------------------|
Ab|-------------------------|-------------------------|-------------------------|-------------------------|
Db|-------------------------|-------------------------|-------------------------|-------------------------|
  |Guitar 2                                                                              
                |
eb|-------------------------|-------------------------|-------------------------|--------------------------|
Bb|-------------------------|-------------------------|-------------------------|--------------------------|
Gb|-------------------------|-------------------------|-------------------------|--------------------------|
Db|-------------------------|-------------------------|-------------------------|--------------------------|
Ab|-------------------------|-------------------------|-------------------------|--------------0--0--0--0--|
Db|-------------------------|-------------------------|-------------------------|--------------0--0--0--0--|
                                                                                         
     PM----------|

   Breakdown
   Guitar 1                                                                              
              4x
eb|--5-----5-----5-----5----|--5-----5-----5-----5----|--5-----5-----5-----5----|--5-----5-----5-----5----||
Bb|o----9-----9-----9-----9-|-----9-----9-----9-----9-|-----9-----9-----9-----9-|-----9-----9-----9-----9o||
Gb|-------------------------|-------------------------|-------------------------|-------------------------||
Db|-------------------------|-------------------------|-------------------------|-------------------------||
Ab|o------------------------|-------------------------|-------------------------|------------------------o||
Db|-------------------------|-------------------------|-------------------------|-------------------------||
  |Let 
||
  |Guitar 2                                                                              
              4x||
eb|-------------------------|-------------------------|-------------------------|--------------------------|
Bb|o------------------------|-------------------------|-------------------------|--------------------------|
Gb|-------------------------|-------------------------|-------------------------|--------------------------|
Db|--0--------0--------0----|-(0)-0-(0)---------------|--0--------0--------0----|-(0)-0-(0)----------------|
Ab|o-0--------0--------0----|-(0)-0-(0)----0--0--0--0-|--0--------0--------0----|-(0)-0-(0)----0--0--0--0--|
Db|--0--------0--------0----|-(0)-0-(0)----0--0--0--0-|--0--------0--------0----|-(0)-0-(0)----0--0--0--0--|
                                           PM-------|                                    
     PM----------|

  Guitar Break
  Guitar 1
eb|-------------------------|-------------------------|-------------------------|-------------------------|
Bb|-------------------------|-------------------------|-------------------------|-------------------------|
Gb|-10-10-10--9--9--9-------|--9-----9-----9-----9--0-|-------------------------|-------------------------|
Db|-------------------10-10-|-10-10-10-10-10-10-10----|-10-10-10-12-12-12--0--0-|--0--0--0--0--0--0--0--0-|
Ab|-------------------------|-------------------------|-------------------------|--0--0--0--0--0--0--0--0-|
Db|-------------------------|-------------------------|-------------------------|-------------------------|
  |PM---------------------|      PM    PM    PM                                          
                |
  |Guitar 2                                                                              
                |
eb|-------------------------|-------------------------|-------------------------|-------------------------|
Bb|-------------------------|-------------------------|-------------------10-10-|-10-10-10-10-10-10-10-10-|
Gb|-------------------------|-------------------------|--------------------x--x-|--x--x--x--x--x--x--x--x-|
Db|-------------------------|-------------------------|--------------------7--7-|--7--7--7--7--7--7--7--7-|
Ab|-------------------------|-------------------------|-------------------------|-------------------------|
Db|-------------------------|-------------------------|-------------------------|-------------------------|

  Chorus
  Guitar 1                                                                               
                3x
eb|-------------------------|-------------------------|-------------------------|-------------------------||
Bb|o------------------------|-------------------------|-------------------------|----------------------10o||
Gb|-10-10-10--9--9--9-------|--------------9-----9----|-------------------------|-----10p9--------9h10----||
Db|-------------------10-10-|-10-10-10-10----10----12-|-10--10--10--12--12--12--|----------10-------------||
Ab|o------------------------|-------------------------|------------------------0|-(0)---------12---------o||
Db|-------------------------|-------------------------|-------------------------|-------------------------||
  |Guitar 2                                                                              
              3x||
eb|-------------------------|-------------------------|-------------------------|-------------------------||
Bb|o------------------------|-------------------------|-------------------------|------------------------o||
Gb|-------------------------|-------------------------|--5---5---5---5-------5--|-------------------------||
Db|-10-------10--------5----|-(5)-5-----5-----5-----0-|--5---5---5---5---5---5-0|--(0)-0-0--0--0-----0--0-||
Ab|o-8--------8--0--0--3----|-(3)-3-----3-----3-----0-|--3---3---3---3---3---3-0|--(0)-0-0--0--0-----0--0o||
Db|--8--------8--0--0--3----|-(3)-3-----3-----3-----0-|------------------------0|--(0)-0-0--0--0-----0--0-||
                 PM-|                                                    PM

   Guitar 1
eb|----------------------------------|-----------------------------------|--------------------------------|
Bb|----------------------------------|-----------------------------------|--------------------------------|
Gb|--10--10--10---9---9---9----------|-------------------9--------9------|--------------------------------|
Db|---------------------------10--10-|--10--10--10--10-------10-------12-|--10---10---10---12---12---12---|
Ab|----------------------------------|-----------------------------------|--------------------------------|
Db|----------------------------------|-----------------------------------|------------------------------0-|
  |Guitar 2                                                                              
                |
eb|----------------------------------|-----------------------------------|--------------------------------|
Bb|----------------------------------|-----------------------------------|--------------------------------|
Gb|----------------------------------|-----------------------------------|---5----5----5----5---------5---|
Db|--10----------10------------5-----|--(5)--5-------5--------5--------0-|---5----5----5----5----5----5-0-|
Ab|---8-----------8---0---0----3-----|--(3)--3-------3--------3--------0-|---3----3----3----3----3----3-0-|
Db|---8-----------8---0---0----3-----|--(3)--3-------3--------3--------0-|------------------------------0-|
                      PM--|                                                              
       PM

   Outro
   Guitar 1
eb|-------------------------|-------------------------|-------------------------|-------------------------|
Bb|----------------------10-|----------------------10-|----------------------10-|----------------------10-|
Gb|-----10p9--------9h10----|-----10p9--------9h10----|-----10p9--------9h10----|-----10p9--------9h10----|
Db|----------10-------------|----------10-------------|----------10-------------|----------10-------------|
Ab|-------------12----------|-------------12----------|-------------12----------|-------------12----------|
Db|-(0)---------------------|--0----------------------|--0----------------------|--0----------------------|
  |                            PM                        PM                        PM    
                |
  |Guitar 2                                                                              
                |
eb|-------------------------|-------------------------|-------------------------|-------------------------|
Bb|-------------------------|-------------------------|-------------------------|-------------------------|
Gb|-------------------------|-------------------------|-------------------------|-------------------------|
Db|-(0)---------------------|-(0)---------------------|-(0)---------------------|-(0)---------------------|
Ab|-(0)---------------------|-(0)---------------------|-(0)---------------------|-(0)---------------------|
Db|-(0)---------------------|-(0)---------------------|-(0)---------------------|-(0)---------------------|

   Guitar 1
eb|-------------------------|-------------------------|-------------------------|-------------------------|
Bb|----------------------10-|----------------------10-|----------------------10-|----------------------10-|
Gb|-----10p9--------9h10----|-----10p9--------9h10----|-----10p9--------9h10----|-----10p9--------9h10----|
Db|----------10-------------|----------10-------------|----------10-------------|----------10-------------|
Ab|-------------12----------|-------------12----------|-------------12----------|-------------12----------|
Db|--0----------------------|--0----------------------|--0----------------------|--0----------------------|
  |  PM                        PM                        PM                        PM    
                |
  |Guitar 2                                                                              
                |
eb|-------------------------|-------------------------|-------------------------|-------------------------|
Bb|-------------------------|-------------------------|-------------------------|-------------------------|
Gb|-------------------------|-------------------------|-------------------------|-------------------------|
Db|-(0)---------------------|-(0)---------------------|-(0)---------------------|-(0)---------------------|
Ab|-(0)---------------------|-(0)---------------------|-(0)---------------------|-(0)---------------------|
Db|-(0)---------------------|-(0)---------------------|-(0)---------------------|-(0)---------------------|

   Guitar 1
eb|-------------------------|-------------------------|-------------------------|-------------------------|
Bb|----------------------10-|----------------------10-|----------------------10-|----------------------10-|
Gb|-----10p9--------9h10----|-----10p9--------9h10----|-----10p9--------9h10----|-----10p9--------9h10----|
Db|----------10-------------|----------10-------------|----------10-------------|----------10-------------|
Ab|-------------12----------|-------------12----------|-------------12----------|-------------12----------|
Db|--0----------------------|--0----------------------|--0----------------------|--0----------------------|
  |  PM                        PM                        PM                        PM    
                |
  |Guitar 2                                                                              
                |
eb|-------------------------|-------------------------|-------------------------|-------------------------|
Bb|-------------------------|-------------------------|-------------------------|-------------------------|
Gb|-------------------------|-------------------------|-------------------------|-------------------------|
Db|-------------------------|-------------------------|-------------------------|-------------------------|
Ab|-------------------------|-------------------------|-------------------------|-------------------------|
Db|-------------------------|-------------------------|-------------------------|-------------------------|

   Guitar1
eb|---------------------------------------------------|---------------------------------------------------|
Bb|---------------------------------------------------|---------------------------------------------------|
Gb|---------------------------------------------------|---------------------------------------------------|
Db|--0------------------------------------------------|-(0)-----------------------------------------------|
Ab|--0------------------------------------------------|-(0)-----------------------------------------------|
Db|--0------------------------------------------------|-(0)-----------------------------------------------|
  |Guitar 2                                                                              
                |
eb|---------------------------------------------------|---------------------------------------------------|
Bb|---------------------------------------------------|---------------------------------------------------|
Gb|---------------------------------------------------|---------------------------------------------------|
Db|---------------------------------------------------|---------------------------------------------------|
Ab|---------------------------------------------------|---------------------------------------------------|
Db|---------------------------------------------------|---------------------------------------------------|

PM= palm mute
 h= hammer-on
 p= pull-off
NH= natural harmonic
Note in parentheses= tied note
 x= muted note
comments
We did not receive enough feedback on this tab! Please rate:
print report bad tab
1 2 3 4 5
1 comment total.
0 reply
todayFOREVER wrote on September 17 2006, 09:35 pm

kudos!

I want to post or [tab]
guest
You may want to rate the tab now too:
select rating
Please do not post tabs as comments. Select "correction" instead!