Oops, an error
Loading. Please wait.

Casually Dressed And Deep In Conversation Tab

580 views 3 this week
no commentswrite comment
1 2 3 4 5
please rate
Autoscroll
+/-
esc
set tempo
stop
Contributor
Difficulty
Tuning
intermediate
C# G# C# F# A# D#
Hey! There's an official Ultimate Guitar app which is ideal
for learning songs when you're away from computer. Get the app
WARNING: You are trying to view
                                    content from Ultimate-Guitar.com
                                    in an unauthorized application,
                                    which is prohibited.

                                    Please use an official Ultimate
                                    Guitar Tabs application for iPhone,
                                    iPad or Android to access legitimate
                                    chords, guitar, bass, and drum tabs
                                    from Ultimate-Guitar.com database.

                                    Type "ultimate guitar tabs" in Apple
                                    App Store's or Android Market's
                                    search to find the application.
Funeral for a Friend
Casually Dressed and Deep in Conversation

1. Rookie Of The Year
2. Bullet Theory
3. Juneau
4. Bend Your Arms To Look Like Wings
5. Escape Artists Never Die
6. Storytelling
7. Moments Forever Faded
8. She Drove Me to Daytime Television
9. Red is the New Black
10. Your Revolution Is A Joke
11. Waking Up
12. Novella

C#G#C#F#A#D#

1. Rookie Of The Year

Intro
|-----------------------------------------------------------------|
|-----------------------------------------------------------------|
|---11--14--11--12--7-7-7---7-7-7---9-9-9---6-6-6---7-7-----------|
|-9------------------------------------------------------7-7--7-7-|
|-9-9---12--9---10--5-5-5---5-5-5---7-7-7---4-4-4---5-5--7-7--7-7-| x5
|-9------------------------------------------------------7-7--7-7-|
                                                         . .
GTR2
|---|----------------------------------------|
|---|----------------------------------------|
|---|-----------9-9-9---6-6-6--7-7-----------|
|-9-|-9----5------------------------7-7--7-7-|
|-9-|-9-x4-5-x6-7-7-7---4-4-4--5-5--7-7--7-7-| x4
|-9-|-9----5------------------------7-7--7-7-|

Pre Verse
Both
|---------|----|---------|
|---7-7-7-|----|---7-7-7-|
|-x-7-7-7-|----|-x-9-9-9-|
|-x-5-5-5-|----|-x-7-7-7-|
|-x-5-5-5-|-x7-|-x-7-7-7-|
|-x-5-5-5-|----|-x-7-7-7-|

Verse
GTR1
|--------------|
|--------------|
|--------------|
|-0-0-0-0--0-0-|
|-0-0-0-0--0-0-| x9
|-0-0-0-0--0-0-|
  . . . .  . . 
GTR2 - Enters
|--------------10----|-----------------------|--------------10----|-----------------12----|
|-----------------10-|--------------10-12-10-|-----------------10-|--------------10----10-|
|--------------------|-----------------------|--------------------|-----------------------|
|-0-0-0-0--0-0-------|-0-0-0-0--0-0----------|-0-0-0-0--0-0-------|-0-0-0-0--0-0----------|
|-0-0-0-0--0-0-------|-0-0-0-0--0-0----------|-0-0-0-0--0-0-------|-0-0-0-0--0-0----------| x2
|-0-0-0-0--0-0-------|-0-0-0-0--0-0----------|-0-0-0-0--0-0-------|-0-0-0-0--0-0----------|

Chorus
GTR1
|----------14-12-10-|----|-------------------------------|
|-10-10-10----------|----|-10-10-10-8-8-8-7-7-7-7/8-8/10-|
|-------------------|----|-------------------------------|
|-------------------|----|-------------------------------|
|-------------------|-x2-|-------------------------------| x2
|-------------------|----|-------------------------------|

GTR2
|----------|
|----------|
|----------|
|-5------0-|
|-5------0-| x2
|-5------0-|

Repeat Verse
Repeat Chorus x2
Bridge
GTR1
|----------------------------|
|----------------------------|
|-7-7-7--6-6-6--9-9-9--11-11-|
|----------------------------|
|-5-5-5--4-4-4--7-7-7--9--9--| 
|----------------------------|

Then 
GTR1
|----9-10-|----10-9----|----9-10-|----12-10----|
|-10------|-10------10-|-10------|-10-------10-|
|---------|------------|---------|-------------|
|---------|------------|---------|-------------|
|---------|------------|---------|-------------| x4
|---------|------------|---------|-------------|

GTR2
|-------|------------------------------|
|-------|------------------------------|
|-------|------------------------------|
|-0-----|-5----0----4----5-----0-----4-|
|-0-x16-|-5----0----4----5-----0-----4-|
|-0-----|-5----0----4----5-----0-----4-|

Outro
GTR1
|----------10-10-10-9-9-9-------------|----|----|----------10-10-10-9-9-9----------|----|----|
|-12-12-12----------------10-10-10-10-|----|----|-12-12-12----------------10-10-10-|----|----|
|-------------------------------------|----|-11-|----------------------------------|----|-10-|
|-------------------------------------|----|----|----------------------------------|----|----|
|-------------------------------------|-x2-|----|----------------------------------|-x2-|----|
|-------------------------------------|----|----|----------------------------------|----|----|

GTR2
|-----------------------------------------|
|-----------------------------------------|
|-----------------------------------------|
|-9-----5-----9-----5----0----0----0----0-|
|-9-----5-----9-----5----0----0----0----0-|
|-9-----5-----9-----5----0----0----0----0-|
The promise that he made
Left broken on the floor
The bruise left round your heart
Left you begging for more

THANK YOU for making me
WORTHLESS in your eyes
In hope and desperation
I'll find my only light
In your white wedding dress

THANK YOU for making this
THE BEST DAY of my life
In hope and desperation
I'll find my only light

And in everything I've seen
I am open to everything
And time will, will take us all and
Drown us in its wake
And clearly I will stay and wipe the blood from
Your white wedding dress


2. Bullet Theory

Intro/Chorus
GTR1
|--------------------------------------------------------------------------------|
|--------------------------------------------------------------------------------|
|-10-10-10-9-9-9-------------------9-----9-------------7-7-7-7-7-7-7-7-7-7-7-7-7-|
|----------------10-10-10-10-10-10-10-10-10-7-10-10-10-------7-7-7-7-7-7-7-7-7-7-|
|--------------------------------------------------------------------------------|x2
|--------------------------------------------------------------------------------| 

                                                 First Time only
|----------------------------------------------|-------------------|
|----------------------------------------------|----------------10-|
|-10-10-10-9-9-9-9---------------------7-7-7---|-10-9------9-10----|
|----------------10------10-7-10-10-10-------7-|------10-7---------|
|----------------------------------------------|-------------------| x2
|----------------------------------------------|-------------------|

GTR2
|--------|--------------------------------|
|--------|--------------------------------|
|-14-----|--------------------------------|
|-12-----|-3--3-3-3-10-----10-----12----0-|
|-12-x42-|-3--3-3-3-10-----10-x3--12-x4-0-|
|-12-----|-3--3-3-3-10-----10-----12----0-|
              . . .                     
Verse
GTR1
|-------------------------------|----------------------------|
|-------------------------------|----------------------------|
|-------7-----5-----7-----5---7-|-------7-----5----7-----7/9-|
|-0-0-0---0-0---0-0---0-0---0---|-0-0-0---0-0---0-0--0-0-----|
|-------------------------------|----------------------------| x3
|-------------------------------|----------------------------|

GTR2
|---------|
|---------|
|---------|
|-0-0-0-0-|
|-0-0-0-0-| xlots
|-0-0-0-0-|

Then
GTR2
|---------------------------------|
|---------------------------------|
|---------------------------------|
|---3-5---3-5---5-7---5-7---7-8-7-|
|-1-----1-----3-----3-----5-------| x4
|---------------------------------|

Repeat Chorus
Repeat Verse
Repeat Chorus
Bridge
Both
|---|
|---|
|---|
|-0-|
|-0-| xlots
|-0-|

Then
GTR1
|-5-|
|-9-|
|---|
|---|
|---| xlots
|---|

Repeat Intro
Repeat Chorus
End
GTR1
|-------------------|
|----------------10-|
|-10-9------9-10----|
|------10-7---------|
|-------------------| x7
|-------------------|

Who shot the bullet?
That killed the air tonight
Without a thought, without a reason
Take a gun called hate
Up against your heart
And pull the trigger

It's over, it's only over
It's only over when we say

The smoke and mirrors
The lies that wind your tongue
Is this oppression what we wanted or what we needed?
As we function on impatience
And our patience is wearing thin
And live a lie that will destroy us all

Back and to the left come on
And shoot motherfucker

You like this baby?
You want to dance a little longer?


3. Juneau

Intro
GTR1
|----------------------------------------|
|----------------------------------------|
|-12-----/12----/12----/10----/9-----/12-|
|-10-x28-/10-x4-/10-x8-/10-x8-/10-x7-/10-|
|-8------/10----/12----/12----/12----/10-|
|----------------------------------------|

Verse
Both
|-----|---------------------------------|
|-----|---------------------------------|
|-----|-5-----/7------------------------|
|-10/-|-3-----/5----9----10---9----5----|
|-10/-|-3-x28-/5-x3-7-x8-7-x8-7-x8-5-x8-|
|-10/-|-3-----/5----7----7----7----5----|

Verse Part 2
GTR1
|-----------------|----|--------------|-----------------|----|
|---5-8p5-6p5-----|----|-5----6--5----|---5-8p5-6p5-----|----|
|-5-----------7p5-|----|------------7-|-5-----------7p5-|----|
|-----------------|----|--------------|-----------------|----|
|-----------------|-x4-|--------------|-----------------|-x4-|
|-----------------|----|--------------|-----------------|----|

|------------------------------------------|
|-5----6-6-6-6-5-5-5-----------------------|
|---------------------7-7-7-5-5-5-7-7-7--5-|
|------------------------------------------|
|------------------------------------------|
|------------------------------------------|

GTR2
|---------------------------------|
|---------------------------------|
|-5-----/7------------------------|
|-3-----/5----9----10---9----5----|
|-3-x28-/5-x3-7-x8-7-x8-7-x8-5-x8-|
|-3-----/5----7----7----7----5----|

Verse 2
GTR1
|-----------------------------------------------|----5p3-------------------------------------|
|-------------6-6-6-6-6-6-5-5-5-5-5-5-5---------|------------6-6-6-6-6-6-5-5-5-5-5-5---------|
|-5-------9-----------------------------7-7-7-7-|-5-------9--------------------------7-7-7-7-|
|-3-------7-------------------------------------|-3-------7----------------------------------|
|-3-------7-------------------------------------|-3-------7----------------------------------|
|-3-------7-------------------------------------|-3-------7----------------------------------|

GTR2
|-----------------|----|-----------------|----|
|-----------------|----|-----------------|----|
|-----5---4p0-----|----|-----5---4p0-----|----|
|---------------5-|----|---------------5-|----|
|-----------------|-x4-|-0-0---0-----0---|-x4-| x2
|-3-3---3-----3---|----|-----------------|----|
  . .   .     .          . .   .     .

Then
GTR1
|-----------------------|
|-----------------------|
|-5-------9----10--9--7-|
|-----------------------|
|-3-------7----8---7--5-| x2
|-----------------------|

GTR2
|---------------------------------|
|---------------------------------|
|-5-----/7------------------------|
|-3-----/5----9----10---9----5----|
|-3-x28-/5-x3-7-x8-7-x8-7-x8-5-x8-| x2
|-3-----/5----7----7----7----5----|

Repeat Verse Part 2
Bridge
GTR1
|----------------------|----|----------------------|----|----------------------|
|----------------------|----|----------------------|----|----------------------|
|------12------12------|----|------12------12------|----|------12------12------|
|---10------10------10-|----|----9-------9-------9-|----|---10------10------10-|
|-8-------8-------8----|-x2-|-12------12------12---|-x2-|-8-------8-------8----|
|----------------------|----|----------------------|----|----------------------|

|----|---------------------------|
|----|---------------------------|
|----|------12------12-----------|
|----|----9-------9-------9------|
|-x2-|-12------12------12-----12-|
|----|---------------------------|

GTR2
|----15-------15-----------15-|----|----15-------15----|
|-13----13-------13----13-----|----|-13----13-------13-|
|----------14-------14--------|----|----------14-------|
|-----------------------------|----|-------------------|
|-----------------------------|-x3-|-------------------|
|-----------------------------|----|-------------------|

Repeat Verse 2
Repeat Verse Part 2

Outro
GTR1
|---|
|-5-|
|---|
|---|
|---|
|---|

GTR2
|----------------------------------------|
|----------------------------------------|
|-12-----/12----/12----/10----/9-----/12-|
|-10-x28-/10-x4-/10-x8-/10-x8-/10-x7-/10-|
|-8------/10----/12----/12----/12----/10-|
|----------------------------------------|

Tied to the testing of wills and my heart breaks
And spills
Left to the sight of the sky
In your arms I'm defined
Thrown to the wolves
In the minds of your enemies
And I'm stone in the eyes of your foolishness

If this is what I'm meant for
No longer interesting
Fall forward just to even the score
Just a thought to you

And I'm nothing more
Than a line in your book


4. Bend Your Arms to Look Like Wings

Intro
GTR1
|---------------|---------------|---------------|---------------|
|---------------|---------------|---------------|---------------|
|---2-----------|---2-----------|---2-----------|---2-----------|
|---4----2--2-0-|---0----2--2-0-|--------2--2-0-|---2----2--2-0-|
|---------------|---------------|-0-0--0--------|---------------| 
|-4----4--------|-0----0--------|---------------|-2----2--------|

GTR2
|------------------------12----|
|---10-----12-----10--------10-|
|-9----9-9----9-9----9-9-------|
|------------------------------|
|------------------------------| 
|------------------------------|

Then
GTR1
|---------------------|---------------------|---------------------|--------------------|
|---------------------|---------------------|---------------------|--------------------|
|---------------------|---------------------|---2------0----------|--------------------|
|---2------0----------|---2------0----------|-2---2--2---2--2-4-2-|---2------0---------|
|-4---4--4---4--4-4-4-|-0---0--0---0--0-0-0-|-0---0--0---0--0---0-|-2---2--2---2-2-4-2-|
|-4---4--4---4--4---4-|-0---0--0---0--0---0-|---------------------|-2---2--2---2-2---2-|

GTR2
|--------------------------|----------------------------|
|-------10-----------------|-------10-----------5-7-5---|
|-6-7-9----9-7-6-7-9-------|-6-7-9----9-7-6-7-9-------4-|
|--------------------9-7-9-|----------------------------|
|--------------------------|----------------------------|
|--------------------------|----------------------------|

Then
GTR1
|-----------------------|
|-----------------------|
|-----------2-----------|
|-4----0----2-x8-2----2-|
|-4-x8-0-x8-0----2-x8-2-|
|-4----0---------2----2-|

GTR2
|---------2-----------------2-----------------2-----------------2-------|
|---2-------2---2-----2-------2---2-----2-------2---2-----2-------2---2-|
|-----2-------2---------2-------2---------2-------2---------2-------2---|
|-4-----4-----------0-----0-----------2-----2-----------2-----2---------|
|-----------------------------------------------------------------------|
|-----------------------------------------------------------------------|

Pre Verse
GTR1
|-------|
|-------|
|-------|
|-0-0-0-|
|-0-0-0-| x4
|-0-0-0-|

GTR2
|---------------------------|
|---------------------------|
|---------------------------|
|-0-0-0-6-0-6-0-0-0-6-0-6h7-|
|-0-0-0-------0-0-0---------| x2
|-0-0-0-------0-0-0---------|

Verse
GTR1
|-------------------------------------------------------|
|-------------------------------------------------------|
|-------------------------------------------------------|
|-0-0-0-------0-0-0---------0-0-0-------0-0-0-7-7-7-7-9-|
|-0-0-0-------0-0-0---------0-0-0-------0-0-0-----------|
|-0-0-0-------0-0-0---------0-0-0-------0-0-0-----------|

GTR
|-------------------------------------------------------|
|-------------------------------------------------------|
|-------------------------------------------------------|
|-0-0-0-6-0-6-0-0-0-6-0-6h7-0-0-0-6-0-6-0-0-0-7-7-7-7-9-|
|-0-0-0-------0-0-0---------0-0-0-------0-0-0-----------|
|-0-0-0-------0-0-0---------0-0-0-------0-0-0-----------|

Pre Chorus
|-5-0--4-0-|
|----------|
|----------|
|----------|
|----------|
|----------|

Guitar 2
|-----|
|-----|
|-----|
|-0-0-|
|-0-0-| x5
|-0-0-|

Repeat Intro as Chorus
Repeat Pre Verse
Repeat Verse
Repeat Chorus
Bridge
GTR1
|---------5----------------5----------------5----------------5-------|
|---5-------5---5----5-------5---5----5-------5---5----5-------5---5-|
|-----5-------5--------5-------5--------5-------5--------5-------5---|
|-7-----7----------3-----3----------5-----5----------5-----5---------|
|--------------------------------------------------------------------|
|--------------------------------------------------------------------|

GTR2
|----------------------|
|----------------------|
|----------------------|
|-7----3----10----5----|
|-7-x8-3-x8-10-x8-5-x8-|
|-7----3----10----5----|

Then
|---------2-----------------2-----------------2-----------------2-------|
|---2-------2---2-----2-------2---2-----2-------2---2-----2-------2---2-|
|-----2-------2---------2-------2---------2-------2---------2-------2---|
|-4-----4-----------0-----0-----------2-----2-----------2-----2---------|
|-----------------------------------------------------------------------|
|-----------------------------------------------------------------------|

GTR2
|---------------------|
|---------------------|
|-----------2---------|
|-4----0----2-x8-2----|
|-4-x8-0-x8-0----2-x8-|
|-4----0---------2----|

Outro
GTR1
|-----------------------------------------------------------------|
|-----------------------------------------------------------------|
|-------------------------------------2-2-----2-2-----2-1-----2-2-|
|-----7-7-----7-7-----7-7-----7-7---------------------------------|
|---4-------4-------4-------4-------2-------2-------2-------2-----|
|-4-------4-------4-------4-------2-------2-------2-------2-------|

GTR2
|----------------|
|---10---12-10---|
|-9----9-------9-|
|----------------|
|----------------|
|----------------|

As the sun sets on battlefields
I hope you can save me
I hope you can save our wounded hearts

Distance makes my heart grow colder
Distance makes my heart grow older
Just enough to cut the air from your lungs

As the sun sets (we push and pull apart)
On battlefields (enough for this to end)
I hope you can save me (from ourselves)
I hope you can save us from ourselves

Denial in the arms of our saviours
And my heart is torn to pieces
Just enough to cut the air from your lungs

And paper cuts and bloody hands
In the middle they would meet


5. Escape Artists Never Die

Intro
GTR1
|----------------|
|----------------|
|----------------|
|-12-----0-0-0-9-|
|-12-----0-0-0-9-|
|-12-----0-0-0-9-|

Verse
GTR1
|------------------------------------------|----------------------------------------|
|------------------------------------------|----------------------------------------|
|------------------------------------------|----------------------------------------|
|----11-----12---------9-12---11---9p11--9-|----11----12---------9-12---11---9p11-5-|
|-9--9---9--9---9--9-9-9-9--9-9--9-9-----9-|-9--9--9--9---9--9-9-9-9--9-9--9-9----5-|
|-9--9---9--9---9--9-9-9-9--9-9--9-9-----9-|-9--9--9--9---9--9-9-9-9--9-9--9-9----5-|

|------------------------------------------------------------|
|-------8-----7----------------------10-----8----------------|
|---------7-----7-----------------------9-----9--------------|
|---5-------------5-5--5/7--7----7--------------7--7--7/9--9-|
|-5---5-----5-------5--5/7--7--7---7------7--------7--7/9--9-| 
|-5---5-----5-------5--5/7--7--7---7------7--------7--7/9--9-|

GTR2
|-----------|----|----------|----|
|-14----/15-|----|-17---/19-|----|
|---x13-----|----|---x13----|----|
|-11----/12-|----|-14---/16-|----|
|-----------|-x2-|----------|-x4-|
|-----------|----|----------|----|

Pre Chorus
GTR1
|--------------------------------------|-----------------------------------|
|--------------------------------------|-----------------------------------|
|-7----/9--7--6--7--7-----12--11--7--9-|-11----18---/19--11----11-11/9--/7-|
|-5-----------------5------------------|-9-------x4------9------------x4---|
|-5-x6-/7--5--4--5--5-x6--10--9---5--7-|-9-x6--16---/17--9-x6--9--9-/7--/5-| x2
|-5-----------------5------------------|-9---------------9-----------------|

GTR2
|--------------------------------------|------------------------------------------|
|--------------------------------------|-------17---/19--------15-15p14----17-----|
|-12---9--7--6--7--12----16--14--16/18-|-11------x4------11-------------14-----14-|
|---x6---------------x6----------------|-9-----14---/16--9------------------------|
|-10---7--5--4--5--10----14--12--14/16-|-9-x6------------9-x6---------------------| x2
|--------------------------------------|-9---------------9------------------------|

Chorus
GTR1
|--------------------------------------------------------------------------------|
|--------------------------------------------------------------------------------|
|-----6-------6-7----------7------9------9----------9-11-------11----------11-12-| 
|---7---7---7-------9-11-9---9-11-----11---11-12-11---------14----12----12-------|
|-5-------5-------7-----------------9--------------------12----------14----------| x2
|--------------------------------------------------------------------------------|

|--------------------------------------------------------|
|--------------------------------------------------------|
|-----6-------6-------7-------7-------9--------9---------| 
|-5-5---7-5-5---7-7-7---9-7-7---9-9-9---11-9-9---11-0----|
|-5-5-----5-5-----7-7-----7-7-----9-9------9-9------0-x9-| x2
|-5-5-----5-5-----7-7-----7-7-----9-9------9-9------0----|

GTR2
|-----------------------|----|--------------------|----|
|-----------------------|----|--------------------|----|
|-7----9----11----14----|----|-12---9---11---14---|----|
|-5----7----9-----12----|----|---x8--x8---x8---x8-|----|
|-5-x8-7-x8-9--x8-12-x8-|-x2-|-10---7---9----12---|-x2-|
|-5----7----9-----12----|----|--------------------|----|

Bridge
GTR1
|-------------10----------------------------12-|
|-12-12-12-12----12-12-12-14-12-12-10-10-10----|
|----------------------------------------------|
|----------------------------------------------|
|----------------------------------------------|
|----------------------------------------------|

GTR2
|-------------14----------------------------15-0-|
|-15-15-15-15----15-15-15-17-15-15-14-14-14----0-|
|------------------------------------------------|
|------------------------------------------------|
|------------------------------------------------|
|------------------------------------------------|

Repeat Verse
Repeat Pre Chorus
Repeat Chorus
Bridge x2
GTR1
|-------------------------------------------------|
|-------------------------------------------------|
|-11----------------11----------------11----11----|
|-12-12-12-12-12-12-12-12-12-12-12-12-12-12-12-12-|
|-------------------------------------------------| x3
|-------------------------------------------------|

|-------------------------------------------------|
|-------------------------------------------------|
|-9-----------------9-----------------9-----9-----|
|-12-12-12-12-12-12-12-12-12-12-12-12-12-12-12-12-|
|-------------------------------------------------| x2
|-------------------------------------------------|

|-------------------------------------------------|
|-------------------------------------------------|
|-11-------11-------14-------12-------11-------11-|
|-12-12-12-12-12-12-12-12-12-12-12-12-12-12-12-12-|
|-------------------------------------------------|
|-------------------------------------------------|

GTR2
|---------|
|---------|
|---------|
|-0-------|
|-0-xlots-| 
|-0-------|

Then
GTR1
|-------------------------------------------------|
|-------------------------------------------------|
|-11----------------11----------------11----11----|
|-12-12-12-12-12-12-12-12-12-12-12-12-12-12-12-12-|
|-------------------------------------------------| 
|-------------------------------------------------|

|-------------------------------------------------|
|-------------------------------------------------|
|-9-----------------9-----------------9-----9-----|
|-12-12-12-12-12-12-12-12-12-12-12-12-12-12-12-12-|
|-------------------------------------------------| 
|-------------------------------------------------|

|-------------------------------------------------|
|-------------------------------------------------|
|-9-----------------9-----------------9-----9-----|
|-11-11-11-11-11-11-11-11-11-11-11-11-11-11-11-11-|
|-------------------------------------------------| 
|-------------------------------------------------|

|-------------------------------------------------|
|-------------------------------------------------|
|-11-------11-------14-------12-------11-------11-|
|-12-12-12-12-12-12-12-12-12-12-12-12-12-12-12-12-|
|-------------------------------------------------|
|-------------------------------------------------|

|-------------------------------------------------|
|-------------------------------------------------|
|-11----------------11----------------11----11----|
|-12-12-12-12-12-12-12-12-12-12-12-12-12-12-12-12-|
|-------------------------------------------------| 
|-------------------------------------------------|

|-------------------------------------------------|
|-------------------------------------------------|
|-9-----------------9-----------------9-----9-----|
|-12-12-12-12-12-12-12-12-12-12-12-12-12-12-12-12-|
|-------------------------------------------------| 
|-------------------------------------------------|

|-------------------------------------------------|
|-------------------------------------------------|
|-9-----------------9-----------------9-----9-----|
|-11-11-11-11-11-11-11-11-11-11-11-11-11-11-11-11-|
|-------------------------------------------------| 
|-------------------------------------------------|

|-------------------------------------------------|
|-------------------------------------------------|
|-12-12-12-12-12-12-11-11-11-11-11-11--9--9--9--9-|
|-14-14-14-14-14-14-12-12-12-12-12-12-11-11-11-11-|
|-------------------------------------------------|
|-------------------------------------------------|

GTR2
|----------------------|
|----------------------|
|----------------------|
|----------------------|
|-5-x4-7-x4-9-x4-0-x18-| x2
|-5----7----9----0-----|

Then, Repeat Till End
GTR1
|-------------------------------------------------|
|-------------------------------------------------|
|-11----------------11----------------11----11----|
|-12-12-12-12-12-12-12-12-12-12-12-12-12-12-12-12-|
|-------------------------------------------------| 
|-------------------------------------------------|

|-------------------------------------------------|
|-------------------------------------------------|
|-9-----------------9-----------------9-----9-----|
|-12-12-12-12-12-12-12-12-12-12-12-12-12-12-12-12-|
|-------------------------------------------------| 
|-------------------------------------------------|

|-------------------------------------------------|
|-------------------------------------------------|
|-9-----------------9-----------------9-----9-----|
|-11-11-11-11-11-11-11-11-11-11-11-11-11-11-11-11-|
|-------------------------------------------------| 
|-------------------------------------------------|

|-------------------------------------------------|
|-------------------------------------------------|
|-12-12-12-12-12-12-11-11-11-11-11-11--9--9--9--9-|
|-14-14-14-14-14-14-12-12-12-12-12-12-11-11-11-11-|
|-------------------------------------------------|
|-------------------------------------------------|

GTR2
|---------------------------|
|---------------------------|
|-7-----9-----11-----14-----|
|-5-----7-----11-----14-----|
|-5-x16-7-x16-9--x16-12-x16-|
|-5-----7-----9------12-----|

Outro
GTR1
|---------------|
|---------------|
|-11---11-------|
|-12------12----|
|-10---------10-|
|---------------|

GTR2
|---|
|---|
|-7-|
|-7-|
|-5-|
|-5-|

The red poison of your lips
The red poison of your eyes
Is where I kissed the blood from,
Just that corner of your mouth where I can see the white of your smile.
Up to my neck
When I'm breathing without you, without you
Up to my eyes
And I'm seeing without you, without you

We'll start a fire,
And burn some bridges
And make it out of here tonight
We'll start a fire,
And burn some bridges
And make it out of here tonight

We need some leverage
We can't seem to open up
The locks are far too tight
And the chains are far too strong, far too strong.
Up to my eyes
And I'm seeing without you, without you
Up to my heart
When I'm bleeding without you, without you.

We'll start a fire,
And burn some bridges
And make it out of here tonight

Please someone help me
I'm dying here in front of you
Please someone help me
I'm dying here in front of you.
With a hundred thousands lights
Timing as everything will
It's everything
It's everything
Timing is everything. It's everything.


6. Storytelling

Intro
GTR1
|-----------------------|
|-----------------------|
|-5---------------------|
|-3-----7----9----9-----|
|-3-x12-5-x5-7-x3-10-x3-| x4
|-3-----5----7----9-----|

GTR2 - Enters
|-----------------------|
|-----------------------|
|-5---------------------|
|-3-----7----9----9-----|
|-3-x12-5-x5-7-x3-10-x3-| x4
|-3-----5----7----9-----|

Pre Verse
GTR1
|-------------------------|--------------------------|
|-------------------------|--------------------------|
|-17-----16----17----10---|-17-----16----17----19----|
|----x20----x8----x2---x2-|----x20----x8----x2----x2-|
|-15-----14----15----8----|-15-----14----15----17----|
|-------------------------|--------------------------|

GTR2
|-----------------------|
|-----------------------|
|-5---------------------|
|-3-----7----9----9-----|
|-3-x12-5-x5-7-x3-10-x3-| x4
|-3-----5----7----9-----|

Verse
GTR1
|-|--------------------------------------|
|-|--------------------------------------|
|-|-5-----12-----10-----9----10----12----|
|-|---x16----x16----x16---x4----x4----x8-|
|-|-3-----10-----8------7----8-----10----|
|-|--------------------------------------|

GTR2
|---------------------------------|----|---------------------------------|
|---------------------------------|----|---------------------------------|
|-----5-4---------5-4---4-7-7-7-7-|----|-----5-4---------5-4---4-7-7-7-7-|
|-----------5---------5---5-5-5-5-|----|-----------5---------5---5-5-5-5-|
|---------------------------------|-x2-|-3-3-----3---3-3-----------------|
|-3-3-----3---3-3-----------------|----|---------------------------------|

|---------------------------------|
|---------------------------------|
|-----5-4---------5-4---4-7-7-7-7-|
|-----------5---------5---5-5-5-5-|
|-0-0-----0---0-0-----------------|
|---------------------------------|

|---------------------------------|---------------------------------|
|---------------------------------|---------------------------------|
|-----5-4---------5-4---4-7-7-7-7-|-----5-4---------5-4---4-7-7-7-7-|
|-0-0-----0-5-0-0-----5---5-5-5-5-|-2-2-----2-5-2-2-----5---5-5-5-5-|
|---------------------------------|---------------------------------|
|---------------------------------|---------------------------------|

Chorus
Both
|-----------------------|
|-----------------------|
|-5---------------------|
|-3-----7----9----9-----|
|-3-x12-5-x5-7-x3-10-x3-| x4
|-3-----5----7----9-----|

Repeat Verse
Repeat Chorus
Repeat Pre Verse
Bridge
GTR1
|----------------------------|
|----------------------------|
|----------------------------|
|----------------------------|
|-3-x7-5-x7-7-x7-10-x3-12-x4-| x4
|-3----5----7----10----12----|

GTR2 - Enters
|---------------------|---------------------|-15------------------|-12-----------------|
|-13--12--12h13p12h13-|-15--12--12h13p12h13-|-----12--12h13p12h13-|-----13--12--13--12-|
|---------------------|---------------------|---------------------|--------------------|
|---------------------|---------------------|---------------------|--------------------|
|---------------------|---------------------|---------------------|--------------------| x2
|---------------------|---------------------|---------------------|--------------------|

Then
GTR1
|-----------------|
|-----------------|
|-----------------|
|-----------------|
|-3--5--7--10--12-| x2
|-3--5--7--10--12-|

GTR2
|-------------15----12----------------|
|-13----12----------------13-12-13-12-|
|-------------------------------------|
|-------------------------------------|
|-------------------------------------|
|-------------------------------------|

Outro
GTR1
|----------------------------|
|----------------------------|
|----------------------------|
|----------------------------|
|-3-x7-5-x7-7-x7-10-x3-12-x4-| x4
|-3----5----7----10----12----|

GTR2
|-10-------10-------------|
|----13-------13----13----|
|-------12-------12----12-|
|-------------------------|
|-------------------------| x4
|-------------------------|

End On
GTR1
|---|
|---|
|---|
|---|
|-3-|
|-3-|

GTR2
|----|
|----|
|-12-|
|----|
|----|
|----|

You say it's not going to work out
Why do you have to tell me now
Is there a difference in anything
You've said and done
Or is it just the way we've been pretending

I'm leaving
Do me a favour don't even think of me now
Just when you thought it was over
It had only just begun

I'm not going to let this tear me apart
She's not my only reason
He's not my only reason she said
You're a weakness to me
You should've sent me a note
Or wrote me a letter

I wish it was how we planned
Everything will work out
You said I hated you if only that was true
You should've said that he'd be happy now


7. Moments Forever Faded

Intro
GTR1
|-----|
|-----|
|-7-7-|
|-7-7-|
|-5-5-|
|-----|

GTR2 - Enters
|---------|
|---------|
|---------|
|-9--7--5-|
|-9--7--5-|
|-9--7--5-|

Verse
GTR1
|-----------------------|-----------|----|-------------------|
|-----------------------|-----------|----|-------------------|
|----------7--6---------|-----------|----|----7--6-----------|
|-5----9---------7----7-|---------5-|----|-9--------7------7-|
|-5----9--------------7-|-5-5-5-5-5-|-x4-|-9---------------7-|
|-5----9--------------7-|-5-5-5-5-5-|----|-9---------------7-|
                          . . . .   
GTR2
|-----------------------|-----------|-----|------------------|
|-----------------------|-----------|-----|------------------|
|-----------------------|-7--6------|-----|-------6-7--------|
|-5----9--------------7-|-------7---|-----|-----7----------7-|
|-5----9--------------7-|---------9-|-x-3-|-7-9------------7-|
|-5----9--------------7-|-----------|-----|----------------7-|

Chorus
Both
|------------------|
|------------------|
|------------------|
|-5-----9----12----|
|-5-x16-9-x8-12-x8-| x4
|-5-----9----12----|

Repeat Verse
Repeat Chorus
Bridge
|--------------------------------|
|--------------------------------|
|--------------------------------|
|-9-9-----/7-7/5--5-5-----/7-7/9-|
|-9-9-x10-/7-7/5--5-5-x10-/7-7/9-| x4
|-9-9-----/7-7/5--5-5-----/7-7/9-|

Outro
GTR1
|---------------------------|----|---|
|---------------------------|----|---|
|---------------------------|----|---|
|-5----/7----/9----/12----/-|----|-5-|
|-5-x8-/7-x8-/9-x8-/12-x8-/-|-x4-|-5-|
|-5----/7----/9----/12----/-|----|-5-|

GTR2
|--------------------------------|----|---|
|--------------------------------|----|---|
|-7----/9----/14----/7---/6----/-|----|---|
|---x8-/--x8-/---x8-/-x4-/--x5-/-|----|-5-|
|-5----/7----/12----/5---/4----/-|-x4-|-5-|
|--------------------------------|----|-5-|

GTR3
|-17--21---22--21-17-21-|
|-----------------------|
|-----------------------|
|-----------------------|
|-----------------------|
|-----------------------|

In the black and white, your wounds all bound
Sitting at the table, biting nails all short
To the consequence of adultery,
As he rips you from your skin

We're all paying for this and in your prayers,
Would you believe, would you believe

You believe, you believe (just for the first time)
You believe, you believe (just like the last time)
You believe, you believe (a seam away from breaking)
You believe, you believe (always, forever)

We’re tasting you for the first time, just to breathe you in
We're breaking you for the first time, we're bathed in sin, we're bathed in sin

The embers will burn you,
The embers will burn you (will burn you)
Will burn you, will burn you tonight (will burn you)
Will burn you, will burn you tonight

Moments forever faded will burn you tonight


8. She Drove Me to Daytime Television

Intro
GTR1
|---------|----|-----------|
|---------|----|-----------|
|---------|----|-----7-9-9-|
|-5-5-5-5-|----|-----------|
|-5-5-5-5-|-x2-|-----5-7-7-| x2
|-5-5-5-5-|----|-5-5-------|

|---------|----|-----------|
|---------|----|-----------|
|---------|----|-----7-9-9-|
|-0-0-0-0-|----|-----------|
|-0-0-0-0-|-x2-|-----5-7-7-| x2
|-0-0-0-0-|----|-5-5-------|

|---------|----|-----------|
|---------|----|-----------|
|---------|----|-----7-9-9-|
|-5-5-5-5-|----|-----------|
|-5-5-5-5-|-x2-|-----5-7-7-| x2
|-5-5-5-5-|----|-5-5-------|

|-------------------------------|
|-------------------------------|
|-----------------------6-7-6-7-|
|-9----4----9----5--------------|
|-9-x3-4-x4-9-x3-5------4-5-4-6-|
|-9----4----9----5--5-5---------|

GTR2
|-------------|----|----------|-------------|----|--------|---------------------|----|
|-------------|----|----------|-------------|----|--------|---------------------|----|
|-11-11-11-11-|----|-11-12-12-|-11-11-11-11-|----|-11-9-9-|-9--11--7---7-7-6----|----|
|-------------|----|----------|-------------|----|--------|------------------x4-|----|
|-9--9--9--9--|-x2-|-9--10-10-|-9--9--9--9--|-x2-|-9--7-7-|-7--9---5---5-5-4----|-x2-| x2
|-------------|----|----------|-------------|----|--------|---------------------|----|

Verse
GTR1
|-----------------|----|---------------------------------|
|-----------------|----|---------------------------------|
|---------7-9-----|----|---------9-11-------------9-11-9-|
|-----------------|----|---------------------------------|
|---------5-7-----|-x2-|---------7-9--------------7-9--7-|
|-0-5-5-0-----0-0-|----|-0-9-9-0------0-0-0-9-9-0--------|

GTR2
|-------------10----------------------10----------|-------------10--------------------10----------|
|-------10-------------10-------10-------------10-|-------10-------------10-----10----------14-10-|
|-------------------------------------------------|-----------------------------------------------|
|-11-12----12----11-12----11-12----12----11-12----|-11-12----12----11-12---11-12---12----12-------|
|-------------------------------------------------|-----------------------------------------------|
|-------------------------------------------------|-----------------------------------------------|

Chorus
GTR1
|----------------------|
|----------------------|
|----------------------|
|-5-----7----9----7----|
|-5-x13-7-x3-9-x9-7-x8-| x4
|-5-----7----9----7----|

GTR2
|-------------------------------------------------|
|-------10----14-10----10-------10----14-10----10-|
|-------------------------------------------------|
|-11-12----12-------11----11-12----12-------12----|
|-------------------------------------------------| x8
|-------------------------------------------------|

Repeat Intro
Repeat Verse
Repeat Chorus
Bridge
GTR1
|-------------------|--------------------|
|-------------------|--------------------|
|-------------------|--------------------|
|-------------------|--------------------|
|-------------------|--------------------| x4
|-5-4-0--0--0-0-0-0-|-9--9-9-5---5-5-5-5-|
 
GTR2 - Enters
|-12-10-|
|-------|
|-------|
|-------|
|-------| x6
|-------|

Then
GTR1
|-------------------|--------------------|
|-------------------|--------------------|
|-------------------|--------------------|
|-5-4-0--0--0-0-0-0-|-9--9-9-5---5-5-5-5-|
|-5-4-0--0--0-0-0-0-|-9--9-9-5---5-5-5-5-| x4
|-5-4-0--0--0-0-0-0-|-9--9-9-5---5-5-5-5-|

GTR2
|-------10----12-10----10-|
|----10----10-------10----|
|-------------------------|
|-12----------------------|
|-------------------------| x lots
|-------------------------|

Outro
GTR1
|----------|
|----------|
|----------|
|-5-4-0--0-|
|-5-4-0--0-| x10
|-5-4-0--0-|

GTR2
|-------10----12-10----10-|
|----10----10-------10----|
|-------------------------|
|-12----------------------|
|-------------------------| x9
|-------------------------|

|-------10-------|
|----10----10----|
|----------------|
|--------------0-|
|-12-----------0-|
|--------------0-|

Can't beat the best ones 
A little closer maybe a bit too close 
You function you turn out 
A flawless performance 

Turn your camera away from me 
Spill your guts in 8mm 
Put your focus where your mouth is 
You're the only one who's fading here 

Such holidays in the sun don't come without sacrifices 
You know it makes more sense 

I like the way you cry 
Break my heart and break my hands and let me down 
I want to snap your neck in two 
And leave you dead, so dead 

on and on and on and on and on (go!)...


9. Red is the New Black

Intro
GTR1
|--------------------------------------|----|----------------------|----|
|--------------------------------------|----|----------------------|----|
|--------------------------------------|----|----------------13----|----|
|--------------------------------------|----|----------14-------14-|----|
|-9-9-11-9-11-9-9-9-12-9-9-12-9-9-12-9-|-x2-|----12----------------|-x4-| x4
|--------------------------------------|----|-12----12----12-------|----|

GTR2 - Enters
|------------------------------|
|------------------------------|
|------------------------------|
|-4---4---4----------4---4---0-|
|-4---4---4----------4---4---0-| x2
|-4---4---4----------4---4---0-|

Verse
Both
|--------------------------------|
|--------------------------------|
|--------------------------------|
|-4--6-4-6-4-4-4-7-4-4-7-4-4-7-4-|
|-4--4-4-4-4-4-4-4-4-4-4-4-4-4-4-| x2
|-4--4-4-4-4-4-4-4-4-4-4-4-4-4-4-|

Then
GTR1 - Harmonics
|----------------|
|--7-----------7-|
|----7---5---5---|
|------7---7-----|
|----------------| x4
|----------------|

GTR2
|---|
|---|
|---|
|---|
|-0-| xlots
|-0-|
  .
Chorus
GTR1
|--------------------------------------|----|---------|
|--------------------------------------|----|---------|
|--------------------------------------|----|---------|
|--------------------------------------|----|---------|
|-9-9-11-9-11-9-9-9-12-9-9-12-9-9-12-9-|-x2-|-0-xlots-|
|--------------------------------------|----|-0-------|

GTR2
|------------------------------------|----|-------------------------------|----|
|------------------------------------|----|-----10p7---9----------9-------|----|
|------------------------------------|----|--------------9------9-----6h7-|----|
|-7-7-9-7-9-7-7-7-11-7-7-11-7-7-11-7-|----|-------------------7-----------|----|
|------------------------------------|-x2-|-0-0------9------7-------0-----|-x2-|
|------------------------------------|----|-0-0------9--------------0-----|----|

Then
GTR1
|--------------------------------------|----|---------|
|--------------------------------------|----|---------|
|--------------------------------------|----|---------|
|--------------------------------------|----|---------|
|-9-9-11-9-11-9-9-9-12-9-9-12-9-9-12-9-|-x2-|-0-xlots-|
|--------------------------------------|----|-0-------|

GTR2
|------------------------------------|----|----------------------------|----|
|------------------------------------|----|----------------------------|----|
|------------------------------------|----|-------14---9--------6----7-|----|
|-7-7-9-7-9-7-7-7-11-7-7-11-7-7-11-7-|----|----------------------------|----|
|------------------------------------|-x2-|-0-0-0-12-0-7--0-0-0-4--0-5-|-x2-|
|------------------------------------|----|-0-0-0----0----0-0-0----0---|----|

Verse 2
GTR1
|-------------|----|----------------|----|---------------------------------|
|-------------|----|----------------|----|---------------------------------|
|-9---------9-|----|-/6-6---------6-|----|------7--7-------7--7------9-----|
|-7---------7-|----|-/4-4---------4-|----|---------------------------------|
|-7---7-7-7-7-|-x5-|-/4-4---4-4-4-4-|-x2-|-4-4--5--5--0-0--5--5-0-0--7-0-0-|
|-7---7-7-7-7-|----|-/4-4---4-4-4-4-|----|-4-4--------0-0-------0-0----0-0-|

GTR2
|----------------------------------------------|---------------------------|
|-10--9----------10--9--------9/12--12/9-------|---------------------------|
|---------9--9----------9--9--------------9--9-|-7-7-------7--7------9-----|
|----------------------------------------------|---------------------------|
|----------------------------------------------|-5-5--0-0--5--5-0-0--7-0-0-|
|----------------------------------------------|------0-0-------0-0----0-0-|

Repeat Chorus
Repeat Verse 2
Then
Both
|---------|
|---------|
|---------|
|---------|
|-0-xlots-|
|-0-------|

Then 
GTR1
|--------------------------------------|----|
|--------------------------------------|----|
|--------------------------------------|----|
|--------------------------------------|----|
|-9-9-11-9-11-9-9-9-12-9-9-12-9-9-12-9-|-x2-|
|--------------------------------------|----|

|------------------------------------|----|
|------------------------------------|----|
|------------------------------------|----|
|-7-7-9-7-9-7-7-7-11-7-7-11-7-7-11-7-|----|
|------------------------------------|-x2-|
|------------------------------------|----|

Outro
Both
|----------|---------|-----------|----|
|----------|---------|-----------|----|
|-6---9/11-|---------|-----------|----|
|-4---7/9--|---------|-----------|----|
|-4---7/9--|-0-xlots-|-0-x5-4-x2-|-x4-|
|-4---7/9--|-0-------|-0----4----|----|


Can't pretend that you're nothing special
You've got to look at all of your options
You can't decide what to go for 
When it's all about trust (it's all about trust)
You see your self on the TV
You read your magazines
You can't explain how it's come to be this
Stop and think….
When it's all about trust (it's all about trust)

This coverage your centre spread
Your neon light daydream will shatter and break
And if you think I'm thinking of your value here
You're the one who's losing control

This eventual stop this, break in the mould
I scream down this hotline just to feel something

This situation, isn't getting any better
I see that look in your eyes
You want to see a pretty face
There isn't anything wrong with giving up
And for what it's worth, I still hate you.

This situation isn't getting any better; I see that look in your eye


10. Your Revolution Is A Joke

0:00-0:39    0:51-1:18                           
|-------------------------5-----7/-|-2-------3-------2p0-----5---|
|---8------7--------8-------8------|---0-------0---------0-----3-|
|-----0------0----0---0-------0----|-----0-------0---------0-----|
|----------------------------------|-----------------------------|
|-7------7------7-------7----------|-3-----3-------3-3-------3-2-|
|----------------------------------|-----------------------------|

0:39-0:51    1:18-1:43
|-3-------5-------7-------8-------|-8p7-----------7---------------|
|---0-------0-------0-------0-----|-----8-----7-------7-----7-8---|
|-----0-------0-------0-------0---|-------7-------------7-------7-|
|---------------0-------0-------0-|-0-------0---0---0-----0-0-----|
|-3-----3-------------------------|-------------------------------|
|---------------------------------|-------------------------------|
|
|-5-------3-------2-------0-------|-5-------7-------8-------10-------|
|---0-------0-------0-------0-----|---0-------0-------0--------0-----|
|-----0-------0-------0-------0---|-----0-------0-------0--------0---|
|---------------------------------|-------0-------0-------0--------0-|
|-3-----3-------3-------3-------3-|----------------------------------|
|---------------------------------|----------------------------------|

1:43-2:35
|-----------------------------------------|-------------------10------8------7-|
|----10------8------8----10------8------8-|----10------8---------0------0------|
|-------0------0------------0------0------|-------0------0---------------------|
|-----------------------------------------|------------------------------------|
|-10------10-----10---10------10-----10---|-10------10-----10------10-----10---|
|-----------------------------------------|------------------------------------|
|
|---0---------------------------|
|-----3---3-----3----3----3-----|
|-----------0-------------------|
|-------------0-------------0---|
|-3-----3-------3--3-3-3--3---3-| x2
|-------------------------------|

2:36
|-3-|
|-3-|
|-0-|
|-0-|
|-5-|
|-5-|

They stand to fight for nothing.
We show them how stupid we've become.
As fortune favours only,
Those who care too much to see.

Oh it will never be okay,
As some will say.
We stand to fight for nothing,
So close your eyes and stay away.
Don’t believe their headlines
They poison our minds, everyday

Oh it will never be the same,
The purpose bearing everyday.
The lies that lead you into the grave.
As some will say.

And you will never be okay,
As some will say.
Purpose bearing everyday,
As some will say.
Lies that lead you to the grave,
As some will say.

Your revolution is a joke,
As I will say..


11. Waking Up

Intro 
GTR1
|---------------|---------------|
|---------------|-15------15----|
|---------------|----14------14-|
|-14------14----|---------------|
|----15------15-|---------------|
|---------------|---------------|

GTR2
|---------------|---------------|
|---------------|---------------|
|---------------|---------------|
|-8--------8----|-12------12----|
|-8--------8----|-12------12----|
|-8--------8----|-12------12----|

Verse
GTR1
|----------------------------|----------------------------------|
|----------------------------|----------------------------------|
|----------------------------|----------------------------------|
|-----7---------8------------|-------------------------8p7------|
|-8-8---8--8--8---8-----8h10-|-8-8-10/12--8--8-8p7---------8h10-|
|--------------------10------|----------------------10----------|

GTR2
|---------------------------|----|--------|
|-13------------11-10-------|----|-13-----|
|-10-x10-10-----------10-12-|----|-10-x10-|
|-10-----10-x10-------------|----|-10-----|
|--------8------------------|-x2-|--------|
|---------------------------|----|--------|

Pre Chorus
GTR1
|-------------------------------------------------|
|-------------------------------------------------|
|------------10--/9---/5----17----15----14---12---|
|--------------x4/--x4/--x2----x5----x4---x4---x2-|
|-8-8-10/12--8---/7---/3----15----13----12---10---|
|-------------------------------------------------|

GTR2
|---------------------------------------------|
|---------------------------------------------|
|-10----10--/9---/5----17----15----14---12----|
|-10-x4---x4/---x4/--x2----x5----x4---x4---x2-|
|-8-----8---/7---/3----15----13----12---10----|
|---------------------------------------------|

Chorus
GTR1
|-----8------------------|-----8---------8-----------------------------|----|
|-5-6---6-5-5h6p5--------|-5-6---6-5-5-6---6-5-5h6p5-------5h6p5-------|----|
|-----------------7--5-7-|---------------------------7-5-7-------7-5-7-|----|
|------------------------|---------------------------------------------|----|
|------------------------|---------------------------------------------|-x3-|
|------------------------|---------------------------------------------|----|

GTR2
|-------------------------------|-------------------------------------------------------------|----|
|-------------------------------|-------------------------------------------------------------|----|
|---------------------------2---|---------3-3---3-3-3---2---------------------------------2---|----|
|-----3---2h3-------3---3h5---3-|-----3---------------------3-------3---2h3-------3---3h5---3-|----|
|-3-3---3-----3---3---3---------|-1-1---1-----1-------1---1---1-3-3---3-----3---3---3---------|-x2-|
|---------------0---------------|---------------------------------------------0---------------|----|

|---------------------------------------------------------------|
|---------------------------------------------------------------|
|---------3-3---3-3-3---2---------------------10-10/12---/14-17-|
|-----3---------------------3-------3---2h3------------x4/------|
|-1-1---1-----1-------1---1---1-3-3---3-----3-8--8-/10---/12-15-|
|---------------------------------------------------------------|

Pre
Both
|------|
|------|
|------|
|-0----|
|-0-x6-|
|-0----|

Repeat Verse
Then
GTR1
|------------------------|
|------------------------|
|-----------5-7/9---/5-5-|
|-----------------x4-----|
|-8-8-10/12-3-5/7---/3-3-|
|------------------------|

GTR2
|--------------|
|--------13----|
|-10-----10-x3-|
|-10-x13-10----|
|-8------------|
|--------------|

Repeat Chorus
Bridge
Both
|---------|
|---------|
|---------|
|-0-------|
|-0-xlots-|
|-0-------|

Then
GTR1
|-------------|
|-------------|
|-------------|
|-8-----0-----|
|-8-x16-0-x16-|
|-8-----0-----|

GTR2
|---------------------------------|
|---------------------------------|
|-9-x12-10-x3-p9-10-x3-9-x5-10h12-|
|---------------------------------|
|---------------------------------|
|---------------------------------|

Then
Both
|-----------|
|---------6-|
|-2--2-9--5-|
|-3--3-10-3-|
|-3--3-8--3-|
|-3--3------|
	
Then
GTR1			
|-------------------------------------|
|-------------------------------------|
|-10----12----------------------------|
|-8-----10----15----17----14----15----|
|-8--x8-10-x8-15-x8-15-x3-12-x4-12-x3-|
|-8-----10----0-----0-----0-----0-----|

GTR2 - Enters
|-----------------------3-|
|-6-5---6-5---6-5---5-6---|
|-----5-----5-----5-------|
|-------------------------|
|-------------------------|
|-------------------------|

Outro
GTR1
|-------------------------------------------|---------------------------------------|
|-------------------------------------------|---------------------------------------|
|-------------------------------------------|---------------------------------------|
|-----8---8h10---10-------------------------|---------------------------------------|
|-------------------------10----10h12----12-|-----8---8h10---10---8---12-12h13---12-|
|-8-8---8------8----10-10----10-------10----|-0-0---0------0----0---0----------0----|

GTR2
|-----------------------3-|
|-6-5---6-5---6-5---5-6---|
|-----5-----5-----5-------|
|-------------------------|
|-------------------------|
|-------------------------|

Then
Both
|-------|
|-------|
|-------|
|-0-----|
|-0-x14-|
|-0-----|

Is a lie just the truth?
Uncovered and relinquished
A passion for all young fools
Is a lie just the truth?
A question left unanswered
To feed the failure of our choices

And in my hands our blood recovered
And for our faith we're undeserved
And in my hands our blood recovered
And in your faith completely

Do we wait all this time?
And follow blindly hating
Killing all that we survey
Do we hate all this time
And let our anger lead us
Lead us to our bitter end

You’re wasting our time (turn the lights out when you leave)
When everything's said and done
We're dead and buried

And will this never end
I'm tired of all this walking
And if this never ends
I'll walk until my feet are bleeding


12. Novella

Intro
GTR1
|-----------------------|
|-----------------------|
|-----------------------|
|-4-4-4-0---------4-4-0-|
|-4-4-4-0---------4-4-0-|
|-4-4-4-0---------4-4-0-|

GTR2
|-----------------------|
|-----------------------|
|-----------------------|
|---------4-4-4-0-------|
|---------4-4-4-0-------|
|---------4-4-4-0-------|

Then
Both
|-----------------------------|-|-----------------------------|---------|
|-----------------------------|-|-----------------------------|---------|
|-----------------------------|-|-----------------------------|---------|
|-4-4-4-0-----4-4-4-0-----4-0-|-|-4-4-4-0-----4-4-4-0-----4-0-|---------|
|-4-4-4-0-0-0-4-4-4-0-0-0-4-0-|-|-4-4-4-0-0-0-4-4-4-0-0-0-4-0-|-0-xlots-| x2
|-4-4-4-0-0-0-4-4-4-0-0-0-4-0-|-|-4-4-4-0-0-0-4-4-4-0-0-0-4-0-|-0-------|

Pre Verse
Both
|----------|
|----------|
|----------|
|----------|
|-0-x-lots-|
|-0--------|

Verse
GTR1
|---------------|
|---------------|
|-7---9---11----|
|--x4--x4---x12-|
|-5---7---9-----|
|---------------|

GTR2
|---------------|
|---------------|
|-7---6---5-----|
|--x4--x4--x12--|
|-5---4---3-----|
|---------------|

Chorus
GTR1
|-----------------------------------------|
|-----------------------------------------|
|-----------------------------------------|
|-5----0----9----4----5----9----5----9----|
|-5-x8-0-x8-9-x4-4-x8-5-x8-9-x8-5-x8-9-x3-| x2
|-5----0----9----4----5----9----5----9----|

GTR2 - Enters
|-------------------|--------------------------------------------------|
|-------------------|--------------------------------------------------|
|-7---11---7---11---|-7---11---7---11---9--/11--/7---11---9--/11--/7---|
|--x8---x8--x8---x3-|--x8---x8--x8---x8--x3---x3--x3---x8--x3---x3--x3-|
|-5---9----5---9----|-5---9----5---9----7--/9---/5---9----7--/9---/5---|
|-------------------|--------------------------------------------------|

Repeat Intro
Verse 2
|----------|
|----------|
|----------|
|----------|
|-0-x-lots-|
|-0--------|

Repeat Chorus x4
Bridge
GTR1
|-----------|
|-----------|
|-----------|
|-0---------|
|-0---------|
|-0---------|

GTR2
|-----------|
|-----------|
|-7-/-9-/11-|
|-----------|
|-5-/-7-/9--|
|-----------|

Then
GTR1
|--------------------------|----|-------------------------------|
|--------------------------|----|-----------------------5-------|
|-6---6-4---4-----4--------|----|-6---6-4---4-----4--------4----|
|---------7----7-----7---7-|----|---------7----7-----7--------7-|
|----------------------0---|-x3-|-------------------------------| x6
|--------------------------|----|-------------------------------|

GTR2 - Enters
|-4--------0---|----|----5--4----|----|----|
|----5--7----7-|----|-5--------5-|----|-7*-|
|--------------|----|------------|----|----|
|--------------|----|------------|----|----|
|--------------|-x2-|------------|-x2-|----| x5
|--------------|----|------------|----|----|

Then
GTR1
|------------------------------------------------------|----------------------------|
|------------------------------------------------------|----------------------------|
|-6---6--6-4---4-6-6----------6--6-4-4-4--4--4--4------|---6--6-4-4-4--4--4--4------|
|------------7--------------4-4--4-4-7-4--7--4--7------|-4-4--4-4-7-4--7--4--7------|
|----------------4-4-4b6r4--4-4--4-4-4-4--4--4--4--0-0-|-4-4--4-4-4-4--4--4--4--0-0-|
|--------------------------------------------------0-0-|------------------------0-0-|

GTR2
|--------5--4-------------------------------------------|------------------------------|
|-----5-------------------------------------------------|------------------------------|
|--------------6-6------------6--6------4-----4---------|----6--6-------4-----4--------|
|-7*-----------------------4--4--4----7----7-----7------|-4--4--4-----7----7-----7-----|
|--------------4-4-4b6r4---4--4--4--4---------------0-0-|-4--4--4--4---------------0-0-|
|-----------------------------4--4--4---------------0-0-|----4--4--4---------------0-0-|

Then
GTR1
|-----------------------|
|-----------------------|
|-7-/-9-/-11-/9-/-7-/-9-|
|-----------------------|
|-5-/-7-/-9--/7-/-5-/-7-|
|-----------------------|

GTR2
|-----------------------|
|-----------------------|
|-7--9--11--14--7--9--6-|
|-----------------------|
|-5--7--9---12--5--7--4-|
|-----------------------|

Outro
GTR2
|--------------2-----2-|
|-7------7-------------|
|-6------6-----2-----2-|
|-4------4-----0-----0-|
|-4------4-----0-----0-|
|----------------------|


WASTING TIME, it's over and ended
WASTING TIME, we deserve
HOLD THAT LINE, they ask us in safety
Hold that line, when we talk

I can see the headlights and pavements
My legs can't carry me that far
If this distance isn't enough they'll cry
Another river to see you drown

FACELESS LIES, it's easy to speak when
Every word is your own
SELFISH EYES look onward in protest as we
Tear down their disguise

Your days were golden while
We bled...
comments
We did not receive enough feedback on this tab! Please rate:
print report bad tab
1 2 3 4 5
I want to post or [tab]
guest
You may want to rate the tab now too:
select rating
Please do not post tabs as comments. Select "correction" instead!