Oops, an error
Loading. Please wait.

End Of Nothing Tab

ver2
ver2

Whole song

More versions @911Tabs.com
1,261 views 1 this week
no commentswrite comment
1 2 3 4 5
please rate
add to favorites launch autoscroll
font size
0
reset
Autoscroll
+/-
esc
set tempo
stop
Difficulty
Tuning
intermediate
C G C F A D
WARNING: You are trying to view
                                    content from Ultimate-Guitar.com
                                    in an unauthorized application,
                                    which is prohibited.

                                    Please use an official Ultimate
                                    Guitar Tabs application for iPhone,
                                    iPad or Android to access legitimate
                                    chords, guitar, bass, and drum tabs
                                    from Ultimate-Guitar.com database.

                                    Type "ultimate guitar tabs" in Apple
                                    App Store's or Android Market's
                                    search to find the application.
The End Of Nothing - Funeral For a Friend

Tuning:Drop D, Down 1/2 Step

Guitar I: Top 
Guitar II: Bottom 

Intro G. I and G. II

eb|----------------------------------------------|---------------------------------|
Bb|----------------------------------------------|---------------------------------|
Gb|--5-3-2---------------------------------------|---------------------------------|
Db|--------5-3-2-3-------------------------------|---------------------------------|
Ab|----------------------------------------------|-----------------------------12\-|
Db|-----------------0-0-0---0---0-0-0--0-0-0--0--|-0-0-0---0---0-0-0--0-0-0--0-12\-|

eb|----------------------------------------------|---------------------------------|
Bb|----------------------------------------------|---------------------------------|
Gb|----------------------------------------------|---------------------------------|
Db|--7-5-3---------------------------------------|---------------------------------|
Ab|--------7-5-3-5-------------------------------|---------------------------------|
Db|-----------------0-0-0---0---0-0-0--0-0-0--0--|---------------------------------|


Verses G. I and G. II								    

eb|--------------------------------------------------------------------------------|-----------------------------------------|
Bb|--------------------------------------------------------------------------------|-----------------------------------------|
Gb|--------------------------------------------------------------------------------|-----------------------------------------|
Db|------------7----------7------10-------7---8------------------------------------|-------7---8---10-------10----8----7-----|
Ab|-------10p8-----10-8-----10-8------------------10-10-10-12----10----12----------|-----------------------------------------|
Db|-0-0-0--------0------0-----------8-8-8---8---8-10-10-10----10----10----10-------|-8-8-8---8---8----10-10----10---10---10--|

eb|--------------------------------------------------------------------------------|-----------------------------------------|
Bb|--------------------------------------------------------------------------------|-----------------------------------------|
Gb|--------------------------------------------------------------------------------|-----------------------------------------|
Db|------------7----------7------10-8-8-8-8-8-8-8-10-10-10----10-10-10-10-10-------|-8-8-8-8-8-8-8-8-10-10-10-10-10-10-10-10-|
Ab|-------10p8-----10-8-----10-8----8-8-8-8-8-8-8-10-10-10----10-10-10-10-10-------|-8-8-8-8-8-8-8-8-10-10-10-10-10-10-10-10-|
Db|-0-0-0--------0------0-----------8-8-8-8-8-8-8-10-10-10----10-10-10-10-10-------|-8-8-8-8-8-8-8-8-10-10-10-10-10-10-10-10-|

then ...

eb|--------------------------------------------------------------------------------|-------|
Bb|--------------------------------------------------------------------------------|-------|
Gb|--------------------------------------------------------------------------------|-7~----|
Db|-----------------3-------------------5-----------------3-----------3------------|-7~----|
Ab|-------------5-7---7-------------7-8---8-----------5-7---7-3---3-7---7-3h5------|-5~----|
Db|-0-0-0--0--0---------0-0-0--0--0---------0-0-0-0-0-----------7------------------|-------|

eb|--------------------------------------------------------------------------------|-------|
Bb|--------------------------------------------------------------------------------|-3~----|
Gb|--------------------------------------------------------------------------------|-2~----|
Db|---------------------------------------------------5----------------------------|-0~----|
Ab|-------------7-------------------8----------------------------------------------|-0~----|
Db|-0-0-0-0-0-0---------0-0-0-0-0-0---------0-0-0-0-0------------------------------|-0~----|

Chorus G. I and G. II

eb|-----------------------------------------------------------------------------------------|-----------------|
Bb|-----------------------------------------------------------------------------------------|-----------------|
Gb|-7----------------------9-----------------------------10---------------------------------|-5---------------|
Db|--------------------------------------------------------------------------5-5-7-5--------|---8-7-5---------|
Ab|-5----------------------7-----------------------------8-----------------8---------8-7-5--|---------8-7-5-5-|
Db|-----------------------------------------------------------------------------------------|-----------------|

eb|-----------------------------------------------------------------------------------------|-----------------|
Bb|-----------------------------------------------------------------------------------------|-----------------|
Gb|---------------------------------------------------------------------10------------------|-----------------|
Db|----------10------------------------10------------------------10p7------------3----------|-7-5-3-----------|
Ab|-------------------12---------------------------12-----------------8----5-7-7---7-5-3----|-------7-5-3-----|
Db|-8-8-8--8----8-8-8----8-10-10-10-10----10-10-10----10-0-0-0-0-------------------------8--|-------------8-8-|

then...

eb|-----------------|-----------------------------------------------------------------------|
Bb|-----------------|-----------------------------------------------------------------------|
Gb|-5---------------|-----------------------------------------------------------------------|
Db|---8-7-5---------|-----------------------------------------------------------------------|
Ab|---------8-7-5---|------------------------------------------------12\--------------------|
Db|-----------------|-0-0-0--0--0-0-0--0-0-0--0--0-0-0--0-0-0--0-0-0-12\--------------------|

eb|-----------------|-----------------------------------------------------------------------|
Bb|-----------------|-----------------------------------------------------------------------|
Gb|-----------------|-----------------------------------------------------------------------|
Db|-7-5-3-----------|-----------------------------------------------------------------------|
Ab|-------7-5-3-----|-----------------------------------------------------------------------|
Db|-------------8---|-----------------------------------------------------------------------|

then... Harmonized!

eb|---------------|----------------|---------------|----|
Bb|---------------|----------------|---------------|-3~-|
Gb|-5-------------|----------------|-5-------------|-2~-|
Db|---8-7-5-------|-----5-7-5------|---8-7-5-------|-0~-|
Ab|---------8-7-7-|-8-7-------8-7--|---------8-7-8-|-0~-|
Db|---------------|----------------|---------------|-0~-|

eb|---------------|----------------|---------------|----|
Bb|---------------|----------------|---------------|-3~-|
Gb|---------------|----------------|---------------|-2~-|
Db|-7-5-3---------|-------3--------|-7-5-3---------|-0~-|
Ab|-------7-5-3-3-|-5-3-7---7-5-3--|-------7-5-3-5-|-0~-|
Db|---------------|----------------|---------------|-0~-|

Bridge G. I and G. II

eb|---------------------------------------------------------------------------------------|
Bb|---------------------------------------------------------------------------------------|
Gb|---------------------------------------------------------------------------------------|
Db|---------------------------------------------------------------------------------------|
Ab|---------------------------------------------------------------------------------------|
Db|-0-0-0--0--0-0-0--0-0-0--0--0-0-0--0-0-0--0-0-0--0-0-0--0-0-0--0--0-0-0--0-0-0--0------|
	
eb|---------------------------------------------------------------------------------------|
Bb|---------------------------------------------------------------------------------------|
Gb|---------------------------------------------------------------------------------------|
Db|---------------------------------------------------------------------------------------|
Ab|---------------------------------------------------------------------------------------|
Db|-0-0-0--0--0-0-0--0-0-0--0--0-0-0--0-0-0--0-0-0--0-0-0--0-0-0--0--0-0-0--0-0-0--0------|

then...

  Trill............................................................|  
eb|-----------------------------------------------------------------------|
Bb|-----------------------------------------------------------------------|
Gb|-----------------------------------------------------------------------|
Db|--3(7)---------------------------2(5)----------------------------------|
Ab|-----------------------------------------------------------------------|
Db|-----------------------------------------------------------------------|	

eb|-----------------------------------------------------------------------|
Bb|-----------------------------------------------------------------------|
Gb|-----------------------------------------------------------------------|
Db|--0(3)---------------------------0(3)----------------------------------|
Ab|-----------------------------------------------------------------------|
Db|-----------------------------------------------------------------------|	

End RIffage G. I and G. II

eb|------------------|-----------------|------------------------------------|
Bb|------------------|-----------------|------------------------------------|
Gb|--5---------------|-5---------------|------------------------------------|
Db|----8-7-5-----5---|---8-7-5-----5---|---5-7-5----------------------------|
Ab|----------8-7---8-|---------8-7---8-|-7-------8-7-8~---------------------|
Db|------------------|-----------------|------------------------------------|

eb|------------------|-----------------|------------------------------------|
Bb|------------------|-----------------|------------------------------------|
Gb|------------------|-----------------|------------------------------------|
Db|--7-5-3-----------|-7-5-3-----------|-----3------------------------------|
Ab|--------7-5-3-7-5-|-------7-5-3-7-5-|-3-7---7-5-3-5~---------------------|
Db|------------------|-----------------|------------------------------------|



comments
We did not receive enough feedback on this tab! Please rate:
print report bad tab
1 2 3 4 5
I want to post or [tab]
guest
You may want to rate the tab now too:
select rating
Please do not post tabs as comments. Select "correction" instead!