Oops, an error
Loading. Please wait.

Escape Artists Never Die Tab

ver1
ver1

Whole song

More versions @911Tabs.com
16,604 views 12 this week
5 commentsread comments
1 2 3 4 5
accurate
x 20
Autoscroll
+/-
esc
set tempo
stop
Contributor
Hey! There's an official Ultimate Guitar app which is ideal
for learning songs when you're away from computer. Get the app
WARNING: You are trying to view
                                    content from Ultimate-Guitar.com
                                    in an unauthorized application,
                                    which is prohibited.

                                    Please use an official Ultimate
                                    Guitar Tabs application for iPhone,
                                    iPad or Android to access legitimate
                                    chords, guitar, bass, and drum tabs
                                    from Ultimate-Guitar.com database.

                                    Type "ultimate guitar tabs" in Apple
                                    App Store's or Android Market's
                                    search to find the application.
Funeral for a Friend - Escape Artists Never Die
Tabbed by Iain Reilly

Verse (Guitar 1) x2
Eb|--------------------------------------------|
Bb|-14--14-14-14-14-14-14-14-14-14-14-14-14-15-|
Gb|--x---x--x--x--x--x--x--x--x--x--x--x--x--x-| x2
Db|-11--11-11-11-11-11-11-11-11-11-11-11-11-12-|
Ab|--------------------------------------------|
Db|--------------------------------------------|

Eb|--------------------------------------------|
Bb|-17--17-17-17-17-17-17-17-17-17-17-17-17-19-|
Gb|--x---x--x--x--x--x--x--x--x--x--x--x--x--x-| x2
Db|-14--14-14-14-14-14-14-14-14-14-14-14-14-16-|
Ab|--------------------------------------------|
Db|--------------------------------------------|

Verse (Guitar 2) x2
Eb|-------------------------------------|
Bb|-------------------------------------|
Gb|-------------------------------------|
Db|-9---11---12-------12---11---12h11---|
Ab|-9-----------------------------------|
Db|-9-9----9----9-999----9----9-------9-|
PM    .    .    . ...    .    .       .

Eb|-------------------------------------|
Bb|-------------------------------------|
Gb|-----11---11-------------------------|
Db|-9----9----9-------12---11---12h11---|
Ab|-9----9----9-------------------------|
Db|-9-9--9-9--9-9-999----9----9-------9-|
PM    .    .    . ...    .    .       .

Note: On repeat, ignore the first part of this riff.  
      Just play the second part twice then the bit below.

Eb|-----------------------------------------------------|
Bb|--------8-------------------------10-----------------|
Gb|-----7----7---9-7-------------9------9---11 9--------|
Db|-5----------------5--5-5--7-------------------7--7-7-|
Ab|-5----------------5--5-5--7-------------------7--7-7-|
Db|-5-5---5----5-----5--5-5--7-7---7------7------7--7-7-|
PM    .   .    .               .   .      .

Pre-Chorus (Guitar 1) x1
Eb|----------------------------------------------------------|
Bb|----------------------------------------------------------|
Gb|-12--12-12-12-12--7/9-7-6-7--12--12-12-12-12--16-14-16-18-|
Db|--x---x--x--x--x--x/x-x-x-x---x---x--x--x--x---x--x--x--x-|
Ab|-10--10-10-10-10--5/7-5-4-5--10--10-10-10-10--14-12-14-16-|
Db|----------------------------------------------------------|

Eb|--------------------------------------------------------|
Bb|--------------------------------------------------------|
Gb|-------------21-21-21-21/23--------------19-18----21----|
Db|-9--9-9-9-9---x--x--x--x/-x--9--9-9-9-9--------19----19-|
Ab|-9--9-9-9-9--19-19-19-19/21--9--9-9-9-9-----------------|
Db|-9--9-9-9-9------------------9--9-9-9-9-----------------|

Eb|----------------------------------------------------------|
Bb|----------------------------------------------------------|
Gb|-12--12-12-12-12--7/9-7-6-7--12--12-12-12-12--16-14-16-18-|
Db|--x---x--x--x--x--x/x-x-x-x---x---x--x--x--x---x--x--x--x-|
Ab|-10--10-10-10-10--5/7-5-4-5--10--10-10-10-10--14-12-14-16-|
Db|----------------------------------------------------------|

Eb|---------------------------------------------------------------|
Bb|---------------------------------------------------------------|
Gb|-------------21-21-21-21/23--------------21--21-21-21-21/23-23-|
Db|-9--9-9-9-9---x--x--x--x/-x--9--9-9-9-9---x---x--x--x--x/-x--x-|
Ab|-9--9-9-9-9--19-19-19-19/21--9--9-9-9-9--19--19-19-19-19/21-21-|
Db|-9--9-9-9-9------------------9--9-9-9-9------------------------|

Pre-Chorus (Guitar 2) x1
Eb|----------------------------------------------|
Bb|----------------------------------------------|
Gb|-7--7-7-7-7--7/9-7-6-7--7--7-7-7-7--12-11-7-9-|
Db|-5--5-5-5-5--x/x-x-x-x--5--5-5-5-5---x--x-x-x-|
Ab|-5--5-5-5-5--5/7-5-4-5--5--5-5-5-5--10--9-5-7-|
Db|-5--5-5-5-5-------------5--5-5-5-5------------|

Eb|-------------------------------------------------------------------|
Bb|-------------------------------------------------------------------|
Gb|-11--11-11-11-11--18--18--18-18/19--11--11-11-11-11--11--9-9-9-9\7-|
Db|--9---9--9--9--9---x---x---x--x/-x---9---9--9--9--9---x--x-x-x-x\x-|
Ab|--9---9--9--9--9--16--16--16-16/17---9---9--9--9--9---9--7-7-7-7\5-|
Db|--9---9--9--9--9---------------------9---9--9--9--9----------------|

Eb|----------------------------------------------|
Bb|----------------------------------------------|
Gb|-7--7-7-7-7--7/9-7-6-7--7--7-7-7-7--12-11-7-9-|
Db|-5--5-5-5-5--x/x-x-x-x--5--5-5-5-5---x--x-x-x-|
Ab|-5--5-5-5-5--5/7-5-4-5--5--5-5-5-5--10--9-5-7-|
Db|-5--5-5-5-5-------------5--5-5-5-5------------|

Eb|---------------------------------------------------------------------------|
Bb|---------------------------------------------------------------------------|
Gb|-11--11-11-11-11--18--18--18-18/19--11--11-11-11-11--18--18-18-18-18/19-19-|
Db|--9---9--9--9--9---x---x---x--x/-x---9---9--9--9--9---x---x--x--x--x/-x--x-|
Ab|--9---9--9--9--9--16--16--16-16/17---9---9--9--9--9--16--16-16-16-16/17-17-|
Db|--9---9--9--9--9---------------------9---9--9--9--9------------------------|

Chorus (Guitar 1) x1
Eb|-------------------------------------------------------------------------|
Bb|-------------------------------------------------------------------------|
Gb|-------------------------------------------------------------------------| x2
Db|-5-5-5-5-5-5-5-5-7-7-7-7-7-7-7-7-9-9-9-9-9-9-9-9-12-12-12-12-12-12-12-12-|
Ab|-5-5-5-5-5-5-5-5-7-7-7-7-7-7-7-7-9-9-9-9-9-9-9-9-12-12-12-12-12-12-12-12-|
Db|-5-5-5-5-5-5-5-5-7-7-7-7-7-7-7-7-9-9-9-9-9-9-9-9-12-12-12-12-12-12-12-12-|

Eb|---------------------------------------------------------------------------------------|
Bb|---------------------------------------------------------------------------------------|
Gb|12-12-12-12-12-12-12-12-9-9-9-9-9-9-9-9-11-11-11-11-11-11-11-11-14-14-14-14-14-14-14-14|x2
Db|-x--x--x--x--x--x--x--x-x-x-x-x-x-x-x-x--x--x--x--x--x--x--x--x--x--x--x--x--x--x--x--x|
Ab|10-10-10-10-10-10-10-10-7-7-7-7-7-7-7-7--9--9--9--9--9--9--9--9-12-12-12-12-12-12-12-12|
Db|---------------------------------------------------------------------------------------|

Chorus (Guitar 2) x1
Eb|--------------------------------------------------------------------------------|
Bb|--------------------------------------------------------------------------------|
Gb|-----6-------6-7----------7------9------9----------9-11-------11----------11-12-| x2
Db|---7---7---7-------9-11-9---9-11-----11---11-12-11---------14----12----12-------|
Ab|-5-------5-------7-----------------9--------------------12----------14----------|
Db|--------------------------------------------------------------------------------|

Eb|--------------------------------------------------------------------|
Bb|--------------------------------------------------------------------|
Gb|-----6-------6-------7-------7-------9--------9---------------------| x2
Db|-5-5---7-5-5---7-7-7---9-7-7---9-9-9---11-9-9---11-0-0-0-0-00-0-0-0-|
Ab|-5-5-----5-5-----7-7-----7-7-----9-9------9-9------0-0-0-0-00-0-0-0-|
Db|-5-5-----5-5-----7-7-----7-7-----9-9------9-9------0-0-0-0-00-0-0-0-|
PM          ...             ...              ...      ................

Bridge (Guitar 1) x1
Eb|-------------10----------------------------12-|
Bb|-12-12-12-12----12-12-12-14-12-12-10-10-10----|
Gb|----------------------------------------------|
Db|----------------------------------------------|
Ab|----------------------------------------------|
Db|----------------------------------------------|

Bridge (Guitar 2) x1
Eb|-------------14----------------------------15-0-|
Bb|-15-15-15-15----15-15-15-17-15-15-14-14-14----0-|
Gb|------------------------------------------------|
Db|------------------------------------------------|
Ab|------------------------------------------------|
Db|------------------------------------------------|

Verse
Pre-Chorus
Chorus

Ending 1 (Guitar 1) x1
Eb|---|
Bb|---|
Gb|---|
Db|-0-|
Ab|-0-|
Db|-0-|

Ending 1 (Guitar 2) x2
Eb|-------------------------------------------------|
Bb|-------------------------------------------------|
Gb|-11----------------11----------------11----11----|
Db|-12-12-12-12-12-12-12-12-12-12-12-12-12-12-12-12-|
Ab|-------------------------------------------------|
Db|-------------------------------------------------|
PM  ...............................................

Ending 2 (Guitar 2) x4
Eb|--------------|
Bb|--------------|
Gb|--------------|
Db|-0--0----0--0-|
Ab|-0--0----0--0-|
Db|-0--0----0--0-|
PM  ....    ....

Ending 2b (Guitar 2) x4
Eb|----------------|
Bb|----------------|
Gb|----------------|
Db|-0-0-0----0-0-0-|
Ab|-0-0-0----0-0-0-|
Db|-0-0-0----0-0-0-|
PM  .....    .....

Ending 2c (Guitar 2) x1
Eb|----------------------------------------------------------------------------------------|
Bb|----------------------------------------------------------------------------------------|
Gb|----------------------------------------------------------------------------------------|
Db|5--5----5--5--------7--7----7--7--------9--9-----9--9--------12--12----12--12----12---12|
Ab|5--5----5--5--------7--7----7--7--------9--9-----9--9--------12--12----12--12----12---12|
Db|5--5----5--5--------7--7----7--7--------9--9-----9--9--------12--12----12--12----12---12|
PM ........................................................................................

Ending 2d (Guitar 2) x1
Eb|-------------------------------------------------------------------------------------|
Bb|-------------------------------------------------------------------------------------|
Gb|-------------------------------------------------------------------------------------|
Db|-5-5--5-5----7-7--7-7----9-9--9-9----12-12-12-12-12-12-12-12-12-12-12-12-12-12-12-12-|
Ab|-5-5--5-5----7-7--7-7----9-9--9-9----12-12-12-12-12-12-12-12-12-12-12-12-12-12-12-12-|
Db|-5-5--5-5----7-7--7-7----9-9--9-9----12-12-12-12-12-12-12-12-12-12-12-12-12-12-12-12-|
PM  ................................

Ending 2 (Guitar 2) x4
Eb|-------------------------------------------------|
Bb|-------------------------------------------------|
Gb|-11----------------11----------------11----11----|
Db|-12-12-12-12-12-12-12-12-12-12-12-12-12-12-12-12-|
Ab|-------------------------------------------------|
Db|-------------------------------------------------|
PM  ...............................................

Eb|-------------------------------------------------|
Bb|-------------------------------------------------|
Gb|--9-----------------9-----------------9-----9----|
Db|-12-12-12-12-12-12-12-12-12-12-12-12-12-12-12-12-|
Ab|-------------------------------------------------|
Db|-------------------------------------------------|
PM  ...............................................

Eb|-------------------------------------------------|
Bb|-------------------------------------------------|
Gb|--9-----------------9-----------------9-----9----|
Db|-11-11-11-11-11-11-11-11-11-11-11-11-11-11-11-11-|
Ab|-------------------------------------------------|
Db|-------------------------------------------------|
PM  ...............................................

Eb|-------------------------------------------------|
Bb|-------------------------------------------------|
Gb|-11-------11-------14-------12-------11-------11-|
Db|-12-12-12-12-12-12-12-12-12-12-12-12-12-12-12-12-|
Ab|-------------------------------------------------|
Db|-------------------------------------------------|
PM  ...............................................

Note: On 4th play of the above riff, play this instead of the last bit.

Eb|-------------------------------------------------|
Bb|-------------------------------------------------|
Gb|-12-12-12-12-12-12-11-11-11-11-11-11--9--9--9--9-|
Db|-14-14-14-14-14-14-12-12-12-12-12-12-11-11-11-11-|
Ab|-------------------------------------------------|
Db|-------------------------------------------------|

Ending 3 (Guitar 1) x4
Eb|------------------------------------------------|
Bb|------------------------------------------------|
Gb|-7---7-7--7---7-7--7--7--9---9-9--9---9-9--9--9-|
Db|-5---5-5--5---5-5--5--5--7---7-7--7---7-7--7--7-|
Ab|-5---5-5--5---5-5--5--5--7---7-7--7---7-7--7--7-|
Db|-5---5-5--5---5-5--5--5--7---7-7--7---7-7--7--7-|

Eb|-----------------------------------------------------------------|
Bb|-----------------------------------------------------------------|
Gb|-11---11-11--11---11-11--11--11---14---14-14--14---14-14--14--14-|
Db|--9----9--9---9----9--9---9---9---12---12-12--12---12-12--12--12-|
Ab|--9----9--9---9----9--9---9---9---12---12-12--12---12-12--12--12-|
Db|--9----9--9---9----9--9---9---9---12---12-12--12---12-12--12--12-|

Ending 3 (Guitar 1) x4
Eb|-------------------------------------------------|
Bb|-------------------------------------------------|
Gb|-11----------------11----------------11----11-12-|
Db|-12-12-12-12-12-12-12-12-12-12-12-12-12-12-12-12-|
Ab|-------------------------------------------------|
Db|-------------------------------------------------|

Eb|-------------------------------------------------|
Bb|-------------------------------------------------|
Gb|--9-----------------9-----------------9-----9----|
Db|-12-12-12-12-12-12-12-12-12-12-12-12-12-12-12-12-|
Ab|-------------------------------------------------|
Db|-------------------------------------------------|

Eb|-------------------------------------------------|
Bb|-------------------------------------------------|
Gb|--9-----------------9-----------------9-----9----|
Db|-11-11-11-11-11-11-11-11-11-11-11-11-11-11-11-11-|
Ab|-------------------------------------------------|
Db|-------------------------------------------------|

Eb|-------------------------------------------------|
Bb|-------------------------------------------------|
Gb|-12-12-12-12-12-12-11-11-11-11-11-11--9--9--9--9-|
Db|-14-14-14-14-14-14-12-12-12-12-12-12-11-11-11-11-|
Ab|-------------------------------------------------|
Db|-------------------------------------------------|

Ending 4 (Guitar 1) x2
Eb|-----------------------------------------------------------------|
Bb|-----------------------------------------------------------------|
Gb|-----------------------------------------------------------------|
Db|-----------------------------------------------------------------|
Ab|-----------------------------------------------------------------|
Db|-5-5-5-5-5-5-5-5-5-5-5-5-5-5-5-5-7-7-7-7-7-7-7-7-7-7-7-7-7-7-7-7-|
PM  ...............................................................

Eb|---------------------------------------------------------------------------------|
Bb|---------------------------------------------------------------------------------|
Gb|---------------------------------------------------------------------------------|
Db|---------------------------------------------------------------------------------|
Ab|---------------------------------------------------------------------------------|
Db|-9-9-9-9-9-9-9-9-9-9-9-9-9-9-9-9-12-12-12-12-12-12-12-12-12-12-12-12-12-12-12-12-|
PM  ...............................................................................

Ending 2 (Guitar 2) x2

Fill (Both Guitars) x1
Eb|---|
Bb|---|
Gb|-7-|
Db|-x-|
Ab|-5-|
Db|---|

Ending 3 (Guitar 1) x4
Ending 3 (Guitar 2) x4

End (Guitar 2) x1
Eb|----------------------|
Bb|-7------7-------------|
Gb|-7---------7----------|
Db|-7------------5-------|
Ab|-5--------------------|
Db|--------------------0-|

End (guitar 1) x1
Eb|----------------------|
Bb|----------------------|
Gb|-7--------------------|
Db|-7-----------feedback-|
Ab|-5--------------------|
Db|----------------------|

Stupid over dubbed bit
Eb|-----------------------------------------------------------------|
Bb|-----------------------------------------------------------------|
Gb|-7-7-7-7-7-7-9-9-9-9-9-9-9-9-9-9-7-7-7-7-7-7-9-9-9-9-9-9-9-9-9-9-|
Db|-x-x-x-x-x-x-x-x-x-x-x-x-x-x-x-x-x-x-x-x-x-x-x-x-x-x-x-x-x-x-x-x-|
Ab|-5-5-5-5-5-5-7-7-7-7-7-7-7-7-7-7-5-5-5-5-5-5-7-7-7-7-7-7-7-7-7-7-|
Db|-----------------------------------------------------------------|

Eb|-----------------------------------------------------------------------------|
Bb|-----------------------------------------------------------------------------|
Gb|-6-6-6-6-6-6-9-9-9-9-9-9-9-9-9-9-12-12-12-12-12-12-11-11-11-11-11-11-9-9-9-9-|
Db|-x-x-x-x-x-x-x-x-x-x-x-x-x-x-x-x--x--x--x--x--x--x--x--x--x--x--x--x-x-x-x-x-|
Ab|-4-4-4-4-4-4-7-7-7-7-7-7-7-7-7-7-10-10-10-10-10-10--9--9--9--9--9--9-7-7-7-7-|
Db|-----------------------------------------------------------------------------|

Note: This is over dubbed during the third and forth plays of the third ending riffs.
I can't be bothered to put it in the right place

Comments/Rants/Corrections: Obscure_Divine_Manifestation@hotmail.com
comments
print report bad tab
5 comments total. Showing first comments.
0 reply
mikeeeeeeey wrote on March 6 2004, 12:00 am

10/10 for dedication!

0 reply
a-o-K wrote on March 25 2004, 12:00 am

Although an excellent tab, it'd help with some lyrics to punctuate cues!

0 reply
steve454 wrote on April 8 2004, 12:00 am

I worked this song out myself..and i must say...its basically exactly the same as what i worked out!
Good one!

I want to post or [tab]
guest
You may want to rate the tab now too:
select rating
Please do not post tabs as comments. Select "correction" instead!