Oops, an error
Loading. Please wait.

Escape Artists Never Die Tab

ver2
ver2

Whole song

More versions @911Tabs.com
2,606 views 6 this week
no commentswrite comment
1 2 3 4 5
accurate
x 4
Autoscroll
+/-
esc
set tempo
stop
Contributor
WARNING: You are trying to view
                                    content from Ultimate-Guitar.com
                                    in an unauthorized application,
                                    which is prohibited.

                                    Please use an official Ultimate
                                    Guitar Tabs application for iPhone,
                                    iPad or Android to access legitimate
                                    chords, guitar, bass, and drum tabs
                                    from Ultimate-Guitar.com database.

                                    Type "ultimate guitar tabs" in Apple
                                    App Store's or Android Market's
                                    search to find the application.
Funeral For A Friend - Escape Artists Never Die
Tabbed By CosmoHack Devil Iowa
____________________________________________________________________________

Tunned in Db-Ab-Db-Gb-Bb-Eb

H - Hammer on
P - Pull Off
\ - Slide
X - Just make a noise muting the strings
P.M. - Palm Mute
~ - Let Ring
... - "Time Later"

Guitar 1: Left Speaker
Guitar 2: Right Speaker



- Intro / Verse:


Guitar 1:

Eb-------------------------------------------
Bb-------------------------------------------
Gb-------------------------------------------
Db---0-0-0--9---9--11--X-X-X--12--11--9H11---
Ab---0-0-0--9---9--9---X-X-X--9---9---9-9----
Db---0-0-0--9---9--9---X-X-X--9---9---9-9----


Eb------------------------------------
Bb------------------------------------
Gb-------11-11------------------------
Db---9---9--9---X-X-X--12--11--9H11---
Ab---9---9--9---X-X-X--9---9---9-9----
Db---9---9--9---X-X-X--9---9---9-9----


Eb----------------------------------------------------------------------
Bb----------------------------------------------------------------------
Gb-------7-----12P7----11P7---------------9-----14P9-----12P9-----------
Db---5------------------------5--5-5--7------------------------7--7-7---
Ab---5------------------------5--5-5--7------------------------7--7-7---
Db---5------0-------0---------5--5-5--7------0--------0--------7--7-7---
            -       -                        -        -  P.M.

Eb------------------------------------
Bb------------------------------------
Gb------------------------------------
Db---9---9--11--X-X-X--12--11--9H11---
Ab---9---9--9---X-X-X--9---9---9-9----
Db---9---9--9---X-X-X--9---9---9-9----


Eb------------------------------------
Bb------------------------------------
Gb-------11-11------------------------
Db---9---9--9---X-X-X--12--11--9H11---
Ab---9---9--9---X-X-X--9---9---9-9----
Db---9---9--9---X-X-X--9---9---9-9----


Eb----------------------------------------------------------------------
Bb----------------------------------------------------------------------
Gb-------7-----12P7----11P7---------------9-----14P9-----12P9-----------
Db---5------------------------5--5-5--7------------------------7--7-7---
Ab---5------------------------5--5-5--7------------------------7--7-7---
Db---5------0-------0---------5--5-5--7------0--------0--------7--7-7---
            -       -                        -        -  P.M.


Guitar 2:

Eb--------------------------------------------------------------------
Bb---14-14-14-14-14-14-14-14-14\15----14-14-14-14-14-14-14-14-14\15---
Gb---X--X--X--X--X--X--X--X--X--X-----X--X--X--X--X--X--X--X--X--X----
Db---11-11-11-11-11-11-11-11-11\12----11-11-11-11-11-11-11-11-11\11---
Ab--------------------------------------------------------------------
Db--------------------------------------------------------------------


Eb--------------------------------------------------------
Bb---17-17-17-17-17-17-17-17----19-19-19-19-19-19-19-19---
Gb---X--X--X--X--X--X--X--X-----X--X--X--X--X--X--X--X----
Db---14-14-14-14-14-14-14-14----16-16-16-16-16-16-16-16---
Ab--------------------------------------------------------
Db--------------------------------------------------------


Eb--------------------------------------------------------
Bb---17-17-17-17-17-17-17-17----19-19-19-19-19-19-19-19---
Gb---X--X--X--X--X--X--X--X-----X--X--X--X--X--X--X--X----
Db---14-14-14-14-14-14-14-14----16-16-16-16-16-16-16-16---
Ab--------------------------------------------------------
Db--------------------------------------------------------


Eb--------------------------------------------------------------------
Bb---14-14-14-14-14-14-14-14-14\15----14-14-14-14-14-14-14-14-14\15---
Gb---X--X--X--X--X--X--X--X--X--X-----X--X--X--X--X--X--X--X--X--X----
Db---11-11-11-11-11-11-11-11-11\12----11-11-11-11-11-11-11-11-11\11---
Ab--------------------------------------------------------------------
Db--------------------------------------------------------------------


Eb--------------------------------------------------------
Bb---17-17-17-17-17-17-17-17----19-19-19-19-19-19-19-19---
Gb---X--X--X--X--X--X--X--X-----X--X--X--X--X--X--X--X----
Db---14-14-14-14-14-14-14-14----16-16-16-16-16-16-16-16---
Ab--------------------------------------------------------
Db--------------------------------------------------------


Eb--------------------------------------------------------
Bb---17-17-17-17-17-17-17-17----19-19-19-19-19-19-19-19---
Gb---X--X--X--X--X--X--X--X-----X--X--X--X--X--X--X--X----
Db---14-14-14-14-14-14-14-14----16-16-16-16-16-16-16-16---
Ab--------------------------------------------------------
Db--------------------------------------------------------



- Prechorus


Guitar 1:

Eb-----------------------------------------------------------
Bb-----------------------------------------------------------
Gb----------------9\7---6\7-----------------12--11--7--7\9---
Db---5-5-5-5-5----X-X---X-X----5-5-5-5-5----X---X---X--X-X---
Ab---5-5-5-5-5----7\5---4\5----5-5-5-5-5----10--9---5--5\7---
Db---5-5-5-5-5-----------------5-5-5-5-5---------------------


Eb--------------------------------------------------------------------
Bb----------------14-14-14-14\15--------------------------------------
Gb----------------X--X--X--X--X-------------------11-11\9---9-9-9\7---
Db---9-9-9-9-9----11-11-11-11\12-----9-9-9-9-9----X--X--X---X-X-X-X---
Ab---9-9-9-9-9-----------------------9-9-9-9-9----9--9-\7---7-7-7\5---
Db---9-9-9-9-9-----------------------9-9-9-9-9------------------------


Eb-----------------------------------------------------------
Bb-----------------------------------------------------------
Gb----------------9\7---6\7-----------------12--11--7--7\9---
Db---5-5-5-5-5----X-X---X-X----5-5-5-5-5----X---X---X--X-X---
Ab---5-5-5-5-5----7\5---4\5----5-5-5-5-5----10--9---5--5\7---
Db---5-5-5-5-5-----------------5-5-5-5-5---------------------


Eb--------------------------------------------------------------------
Bb----------------14-14-14-14\15--------------------------------------
Gb----------------X--X--X--X--X-------------------11-11\9---9-9-9\7---
Db---9-9-9-9-9----11-11-11-11\12-----9-9-9-9-9----X--X--X---X-X-X-X---
Ab---9-9-9-9-9-----------------------9-9-9-9-9----9--9-\7---7-7-7\5---
Db---9-9-9-9-9-----------------------9-9-9-9-9------------------------



Guitar 2:

Eb-----------------------------------------------------------------------
Bb-----------------------------------------------------------------------
Gb---12-12-12-12-12---9\7---6\7----12-12-12-12-12----16--14--16--16\18---
Db---X--X--X--X--X----X-X---X-X----X--X--X--X--X-----X---X---X---X--X----
Ab---10-10-10-10-10---7\5---4\5----10-10-10-10-10----14--12--14--14\16---
Db-----------------------------------------------------------------------


Eb-----------------------------------------------------------------------
Bb----------------17-17-17-17\19-----------------15--15P14----17P15------
Gb----------------X--X--X--X--X----------------------------14------------
Db---9-9-9-9-9----14-14-14-14\16----9-9-9-9-9----------------------------
Ab---9-9-9-9-9----------------------9-9-9-9-9----------------------------
Db---9-9-9-9-9----------------------9-9-9-9-9----------------------------


Eb-----------------------------------------------------------------------
Bb-----------------------------------------------------------------------
Gb---12-12-12-12-12---9\7---6\7----12-12-12-12-12----16--14--16--16\18---
Db---X--X--X--X--X----X-X---X-X----X--X--X--X--X-----X---X---X---X--X----
Ab---10-10-10-10-10---7\5---4\5----10-10-10-10-10----14--12--14--14\16---
Db-----------------------------------------------------------------------


Eb-----------------------------------------------------------------------
Bb----------------17-17-17-17\19-----------------17-17-17-17-17-17\19----
Gb----------------X--X--X--X--X------------------X--X--X--X--X--X--X-----
Db---9-9-9-9-9----14-14-14-14\16----9-9-9-9-9----14-14-14-14-14-14\17----
Ab---9-9-9-9-9----------------------9-9-9-9-9----------------------------
Db---9-9-9-9-9----------------------9-9-9-9-9----------------------------




- Chorus


Guitar 1:

I think that it´s sounds right played this way


Eb--------------------------------------------------------------------------
Bb--------------------------------------------------------------------------
Gb-------6--------6-7-----6---6---7-9-----7-9---9---9-11----9-11-9---9-11-12
Db-----7---7----7-------7-------7-------9-----9---9-------9--------9--------
Ab---9--------9-------9-----9-----------------------------------------------
Db--------------------------------------------------------------------------


Eb--------------------------------------------------------------------------
Bb--------------------------------------------------------------------------
Gb-------6--------6-7-----6---6---7-9-----7-9---9---9-11----9-11-9---9-11-12
Db-----7---7----7-------7-------7-------9-----9---9-------9--------9--------
Ab---9--------9-------9-----9-----------------------------------------------
Db--------------------------------------------------------------------------


Eb--------------------------------------------------------------------------
Bb--------------------------------------------------------------------------
Gb--------------------------------------------------------------------------
Db------7--11P7------11P7------9--12P9------12P9------11--14P11------14P11--
Ab---0-----------0-0--------0-----------0-0--------0-------------0-0--------
Db---0-----------0-0--------0-----------0-0--------0-------------0-0--------
                 - -                    - -                      - -  P.M.

Eb-------------------------
Bb------------------------- 
Gb-------------------------
Db-------------------------
Ab------------000--0-0-----
Db---0-0-0-0--000--0-0-----
     - - - -  ---  - -  P.M.

Eb--------------------------------------------------------------------------
Bb--------------------------------------------------------------------------
Gb--------------------------------------------------------------------------
Db------7--11P7------11P7------9--12P9------12P9------11--14P11------14P11--
Ab---0-----------0-0--------0-----------0-0--------0-------------0-0--------
Db---0-----------0-0--------0-----------0-0--------0-------------0-0--------
                 - -                    - -                      - -  P.M.

Eb-------------------------
Bb------------------------- 
Gb-------------------------
Db-------------------------
Ab------------000--0-0-----
Db---0-0-0-0--000--0-0-----
     - - - -  ---  - -  P.M.


Guitar 1 Chorus Ends With:

Eb---------------------------------------------------------
Bb---15-15-15-15--19---15-15-15--17---15-15-14-14-14--19---
Gb---------------------------------------------------------
Db---------------------------------------------------------
Ab---------------------------------------------------------
Db---------------------------------------------------------


Guitar 2:

Eb---------------------------------------
Bb---------------------------------------
Gb--------------------------------------- 
Db---5-5-5-5-5-5-5-5---7-7-7-7-7-7-7-7--- 
Ab---5-5-5-5-5-5-5-5---7-7-7-7-7-7-7-7---
Db---5-5-5-5-5-5-5-5---7-7-7-7-7-7-7-7---


Eb-----------------------------------------------
Bb----------------------------------------------- 
Gb----------------------------------------------- 
Db---9-9-9-9-9-9-9-9---12-12-12-12-12-12-12-12--- 
Ab---9-9-9-9-9-9-9-9---12-12-12-12-12-12-12-12---
Db---9-9-9-9-9-9-9-9---12-12-12-12-12-12-12-12---


Eb---------------------------------------
Bb---------------------------------------
Gb--------------------------------------- 
Db---5-5-5-5-5-5-5-5---7-7-7-7-7-7-7-7--- 
Ab---5-5-5-5-5-5-5-5---7-7-7-7-7-7-7-7---
Db---5-5-5-5-5-5-5-5---7-7-7-7-7-7-7-7---


Eb-----------------------------------------------
Bb----------------------------------------------- 
Gb----------------------------------------------- 
Db---9-9-9-9-9-9-9-9---12-12-12-12-12-12-12-12--- 
Ab---9-9-9-9-9-9-9-9---12-12-12-12-12-12-12-12---
Db---9-9-9-9-9-9-9-9---12-12-12-12-12-12-12-12---


Eb---------------------------------------------------- 
Bb---------------------------------------------------- 
Gb---12~---9~----11~---14~-----12~---9~----11~---14~-- 
Db---X-----X-----X-----X-------X-----X-----X-----X---- 
Ab---10~---7~----9~----12~-----10~---7~----9~----12~--
Db----------------------------------------------------


Guitar 2 Chorus Ends With:

Eb--------------------------------------------------
Bb---------------19----------17----------------19--- 
Gb---16-16-16-16----16-16-16----16-16-14-14-14------ 
Db-------------------------------------------------- 
Ab--------------------------------------------------
Db--------------------------------------------------


- Repeat Verse, Prechorus And Chorus (Not Playing The End Of The Chorus)


- Interlude/End


Guitar 1 (This part is equal during the interlude and the end,
the only thing that changes is the change into distortion when
the end arrives, so repeat so many times):

Eb----------------------------------------------------- 
Bb----------------------------------------------------- 
Gb---11----------------11----------------11----11------ 
Db---12-12-12-12-12-12-12-12-12-12-12-12-12-12-12-12--- 
Ab-----------------------------------------------------
Db-----------------------------------------------------
        -- -- -- -- --    -- -- -- -- --    --    --  P.M.

Eb----------------------------------------------------- 
Bb----------------------------------------------------- 
Gb---11----------------11----------------11----11------ 
Db---12-12-12-12-12-12-12-12-12-12-12-12-12-12-12-12--- 
Ab-----------------------------------------------------
Db-----------------------------------------------------
        -- -- -- -- --    -- -- -- -- --    --    --  P.M.


Eb----------------------------------------------------- 
Bb----------------------------------------------------- 
Gb---9-----------------9-----------------9-----9------- 
Db---12-12-12-12-12-12-12-12-12-12-12-12-12-12-12-12--- 
Ab-----------------------------------------------------
Db-----------------------------------------------------
        -- -- -- -- --    -- -- -- -- --    --    --  P.M.

Eb----------------------------------------------------- 
Bb----------------------------------------------------- 
Gb---9-----------------9-----------------9-----9------- 
Db---11-11-11-11-11-11-11-11-11-11-11-11-11-11-11-11--- 
Ab-----------------------------------------------------
Db-----------------------------------------------------
        -- -- -- -- --    -- -- -- -- --    --    --  P.M.

Eb-----------------------------------------------------
Bb-----------------------------------------------------
Gb---11-------11-------14-------12-------11----11------
Db---12-12-12-12-12-12-12-12-12-12-12-12-12-12-12-12--- 
Ab-----------------------------------------------------
Db-----------------------------------------------------
        -- --    -- --    -- --    -- --    --    --  P.M.


Guitar 2:

Eb--------------------------------------------------------
Bb--------------------------------------------------------
Gb-------------------------------------------------------- 
Db--------------------------------------------------------
Ab---0-0---0-0---0-0---0-0---0-0---0-0...-0-0-0---0-0-0---
Db---0-0---0-0---0-0---0-0---0-0---0-0...-0-0-0---0-0-0---
     - -   - -   - -   - -   - -   - -    - - -   - - -  P.M.

Repeat until changes to (When the end arrives not palm mute):

Eb------------------------------------------------------- 
Bb-------------------------------------------------------
Gb-------------------------------------------------------
Db------------------------------------------------------- 
Ab---5-5---5-5---7-7---7-7---9-9---9-9---12-12---12-12---
Db---5-5---5-5---7-7---7-7---9-9---9-9---12-12---12-12---
     - -   - -   - -   - -   - -   - -   -- --   -- --  P.M.


Guitar 3: This guitar enters at 4:39 and repeats this:

Eb-----------------------------
Bb-----------------------------
Gb---7-7-7-7-7-7\9-9-9-9-9-9---
Db---X-X-X-X-X-X-X-X-X-X-X-X--- x3 and then:
Ab---5-5-5-5-5-5\7-7-7-7-7-7---             
Db-----------------------------

Eb-----------------------------------
Bb-----------------------------------
Gb---7-7-7-7-7-7\11-11-11-11-11-11---
Db---X-X-X-X-X-X-X--X--X--X--X--X---- Then back...
Ab---5-5-5-5-5-5\9--9--9--9--9--9----        
Db-----------------------------------  



And that´s all!!
Sorry about my english but I´m spanish...
...Funeral For A Friend POWA!!

CosmoHack Devil Iowa 

(Tab dedicated to my muse, KaoS... I love you!)
I want to post or [tab]
guest
You may want to rate the tab now too:
select rating
Please do not post tabs as comments. Select "correction" instead!