Oops, an error
Loading. Please wait.

Hours Tab

572 views 3 this week
no commentswrite comment
1 2 3 4 5
please rate
add to favorites launch autoscroll
font size
0
reset
Autoscroll
+/-
esc
set tempo
stop
Contributor
Difficulty
Tuning
intermediate
C# G# C# F# A# D#
WARNING: You are trying to view
                                    content from Ultimate-Guitar.com
                                    in an unauthorized application,
                                    which is prohibited.

                                    Please use an official Ultimate
                                    Guitar Tabs application for iPhone,
                                    iPad or Android to access legitimate
                                    chords, guitar, bass, and drum tabs
                                    from Ultimate-Guitar.com database.

                                    Type "ultimate guitar tabs" in Apple
                                    App Store's or Android Market's
                                    search to find the application.
Funeral for a Friend
Hours

All Tuning in 
C#G#C#F#A#D#

1. All the Rage
Intro
GTR1
|----|
|----|
|----|
|-0~-|
|-0~-|
|-0~-|

GTR2
|----|
|----|
|-9~-|
|----|
|----|
|----|

Verse
GTR1
|------------------------------------|-----------------------------------------|
|------------------------------------|-----------------------------------------|
|-9---9--------------7---------------|--------------------------------12-11----|
|-9-----------------------------9----|----9-------12------------12----------12-|
|-7-7---7-9-10-7-7-7---7-9-10-7---10-|------10-------10----9-10----10----------|
|------------------------------------|-10------10-------10---------------------|

|------------------------------------|----------------------------------|
|------------------------------------|-------------------------------7*-|
|-9---9--------------7---------------|-------------------------7*-------|
|-9-----------------------------9----|----9-------12--------7*----7*----|
|-7-7---7-9-10-7-7-7---7-9-10-7---10-|------10-------10-----------------|
|------------------------------------|-10------10-------10--------------|

GTR2
|---------------------|
|---------------------|
|-9----11---12---14---|
|--x16---x8---x4---x4-|
|-7----9----10---12---|
|---------------------|

Pre Chorus 
GTR1
|----------------------------------------------------------|
|----------------------------------------------------------|
|-------------------------------------------------11-9-7-9-|
|-2-2p0-0-0-0-0-0-2--2p0-0-0-0-0-2--2p0-0-0-0-0-0----------|
|-2-2p0-0-0-0-0-0-2--2p0-0-0-0-0-2--2p0-0-0-0-0-0-9--7-5-7-|
|-2-2p0-0-0-0-0-0-2--2p0-0-0-0-0-2--2p0-0-0-0-0-0----------|

GTR2
|--------------------------------------------------|
|--------------------------------------------------|
|--------------------------------------------------|
|-2-2p0-0-0-0-0-0-2--2p0-0-0-0-0-0-0-0-0-0-0-0-0-0-|
|-2-2p0-0-0-0-0-0-2--2p0-0-0-0-0-0-0-0-0-0-0-0-0-0-|
|-2-2p0-0-0-0-0-0-2--2p0-0-0-0-0-0-0-0-0-0-0-0-0-0-|

Then x2
GTR1
|----------------------------------------------------------|
|----------------------------------------------------------|
|-------------------------------------------------11-9-7-9-|
|-2-2p0-0-0-0-0-0-2--2p0-0-0-0-0-2--2p0-0-0-0-0-0----------|
|-2-2p0-0-0-0-0-0-2--2p0-0-0-0-0-2--2p0-0-0-0-0-0-9--7-5-7-|
|-2-2p0-0-0-0-0-0-2--2p0-0-0-0-0-2--2p0-0-0-0-0-0----------|

GTR2
|-----------------------------|
|-----------------------------|
|-9---16---9---16---9---16----|
|--x3---x3--x3---x3--x3---x12-|
|-7---14---7---14---7---14----|
|-----------------------------|

Then x2
GTR1
|---------------------------------------------|
|---------------------------------------------|
|------------------------------------11-9-7-9-|
|-10-10-10---5-5-5---2-2-0-0-0-0-0-0----------|
|-10-10-10---5-5-5---2-2-0-0-0-0-0-0-9--7-5-7-|
|-10-10-10---5-5-5---2-2-0-0-0-0-0-0----------|

GTR2
|----------------------------------------------------|
|----------------------------------------------------|
|-11-12-12-12-11-12-12-12-11-12-12-12-12-14-14-11-11-|
|----------------------------------------------------|
|-9--10-10-10-9--10-10-10-9--10-10-10-10-12-12-9--9--|
|----------------------------------------------------|

|----------------------------------------------------|
|----------------------------------------------------|
|-11-12-12-12-11-12-12-12-11-12-12-12-12-14-14-16-16-|
|----------------------------------------------------|
|-9--10-10-10-9--10-10-10-9--10-10-10-10-12-12-14-14-|
|----------------------------------------------------|

Chorus
GTR1
|-------------------------|
|-------------------------|
|-------------------------|
|-10----12----10----12----|
|-10-x8-12-x8-10-x8-12-x8-|
|-10----12----10----12----|

GTR2
|------------------------------------------------|
|-13-12-------13-12-------13-12------------------|
|-------12----------12----------12---------------|
|----------12----------12----------12-10-9-10-12-|
|------------------------------------------------| x2
|------------------------------------------------|

Then
GTR1
|----------------------------------------------|---------------------------------------------|
|----------------------------------------------|---------------------------------------------|
|-------------------------------------12-------|-------------------------------------9-11-12-|
|-------------12----------------12-------------|-------------12----------------12------------|
|-10----10----------------10----------------12-|-12----12----------------10-12---------------|
|-10-10----10----10-10-10----10----10----10----|-12-12----12----12-12-12----------12---------|

|----------------------------------------------|-----------------------------------------|
|----------------------------------------------|-----------------------------------------|
|-------------------------------------12-------|-----------------------------------------|
|-------------12----------------12-------------|-------------12----------12--12-12-12-12-|
|-10----10----------------10----------------12-|-12----12----------------12--12-12-12-12-|
|-10-10----10----10-10-10----10----10----10----|-12-12----12----12-12-12-12--12-12-12-12-|

GTR2
|----------------------------------------------|
|----------------------------------------------|
|-12-14-14-16-16-17-17-19-19-17-17-16-16-14-14-|
|----------------------------------------------|
|-10-12-12-14-14-15-15-17-17-15-15-14-14-12-12-| x2
|----------------------------------------------|

Post Chorus
GTR1
|----|
|----|
|----|
|-2~-|
|-2~-|
|-2~-|

GTR2
|----|
|----|
|-9~-|
|-9~-|
|-7~-|
|----|

Repeat Verse
Repeat Pre Chorus
Repeat Chorus
Bridge
GTR1
|-----------------------|
|-----------------------|
|-----------------------|
|-2----5----10----12----|
|-2-x6-5-x6-10-x9-12-x4-| x4
|-2----5----10----12----|

GTR2
|--------------------------------|----|--------------------------------|----|
|--------------------------------|----|-13-12------13-12---------------|----|
|-12-11------12-11---------------|----|--------------------------------|----|
|-------12---------12-10-9-10-12-|----|-------12---------12-10-9-10-12-|----|
|--------------------------------|-x2-|--------------------------------|-x2-| x2
|--------------------------------|----|--------------------------------|----|

Then
GTR1
|----|
|----|
|----|
|-2~-|
|-2~-|
|-2~-|

GTR2
|----|
|----|
|-9~-|
|-9~-|
|-7~-|
|----|

Repeat Verse
End On
GTR1
|----|
|----|
|----|
|-2~-|
|-2~-|
|-2~-|

GTR2
|----|
|----|
|-9~-|
|-9~-|
|-7~-|
|----|

2. Streetcar
Intro
GTR1
|---------------------------------------------------|
|---------------------------------------------------|
|---------------------------------------------------|
|---------------------------------------------------|
|-0-4-5-5-x16-5-5-x16-0-0-x16-0-0-x8-10---9---7---5-|
|-0-4-5-5-----5-5-----0-0-----0-0-------0---0---0---|
        .       .       .       .       .   .   .  
Verse
GTR1
|------------------------------------------------------------------------------|
|------------------------------------------------------------------------------|
|------------------------------------------------------------------------------|
|------------------------------------------------------------------------------|
|-5-5-x16-5-5-x16-0-0-x16-0-0-x16-5-5x16-5-5-x16-0-0-x16-0-0-x8-10---9---7---5-|
|-5-5-----5-5-----0-0-----0-0-----5-5----5-------0-0-----0-0-------0---0---0---|

GTR2
|-----------------|-----------------|-----------------|-----------------|
|-----------------|-----------------|-----------------|-----------------|
|-6-4-6-4-6-4-6-7-|-6-4-6-4-6-4-6-7-|-7-6-7-6-7-6-7-9-|-7-6-7-6-7-6-7-9-|
|-5-5-5-5-5-5-5-5-|-5-5-5-5-5-5-5-5-|-7-7-7-7-7-7-7-7-|-7-7-7-7-7-7-7-7-|
|-----------------|-----------------|-----------------|-----------------| x2
|-----------------|-----------------|-----------------|-----------------|

Chorus
GTR1
|-10----------------10----------------|-----------------------------------------|----|
|----10p8p7h8p7h8p7----10p8p7h8p7h8p7-|-20p10p8p7-19p10p8p7-17p10p8p7-15p10p8p7-|----|
|-------------------------------------|-----------------------------------------|----|
|-------------------------------------|-----------------------------------------|----|
|-------------------------------------|-----------------------------------------|-x2-| x2
|-------------------------------------|-----------------------------------------|----|

GTR2
|------------------------------------|
|------------------------------------|
|-7---/9-6---7---6---14---12----11---|
|--x12/---x5--x4--x6---x6---x14---x6-|
|-5---/7-4---5---4---12---10----9----| x2
|------------------------------------|

Repeat Verse
Repeat Chorus
Bridge
GTR1
|-10~-|
|-----|
|-----|
|-----|
|-----|
|-----|

GTR2
|----|
|----|
|----|
|----|
|-0~-|
|-0~-|

Then
GTR1
|--------------------------------------|-------------------------|----|
|--------------------------------------|-------------------------|----|
|--------------------------------------|-------------------------|----|
|-9-------7-------5--------------------|-9-----7-----5-----4-----|----|
|-9-x16-0-7-x16-0-5-x16-0--4-4-4-4/7-7-|-9-x16-7-x16-5-x16-4-x16-|-x2-|
|-9-----0-7-----0-5-----0--4-4-4-4/7-7-|-9-----7-----5-----4-----|----|

GTR2
|-------------------|
|-14-x6-15-x6-17-x4-|
|-14----14----14----|
|-------------------|
|-------------------| x12
|-------------------|

Then
GTR1
|------------------------------------|
|------------------------------------|
|------------------------------------|
|-9-----\-7-----\-5-----\-4----5-5-7-|
|-9-x10-\-7-x10-\-5-x10-\-4-x8-5-5-7-|
|-9-----\-7-----\-5-----\-4----5-5-7-|

GTR2
|-------------------------|
|-14-x4-15-x4-17-15-14----|
|-14----14-------------14-|
|-------------------------|
|-------------------------| x4
|-------------------------|

Then
GTR1
|---------------------------------|
|---------------------------------|
|---------------------------------|
|-9-----7-----5-----4-----5-5-5-7-|
|-9-x16-7-x16-5-x16-4-x12-5-5-5-7-|
|-9-----7-----5-----4-----5-5-5-7-|

GTR2
|-------------------|
|-14-x6-15-x6-17-x4-|
|-14----14----14----|
|-------------------|
|-------------------| x4
|-------------------|

End On
GTR1
|----|
|----|
|----|
|----|
|-9~-|
|-9~-|

GTR2
|-----|
|-17~-|
|-14~-|
|-----|
|-----|
|-----|

3. Roses For The Dead
Intro
GTR1
|--------------------------------------|----|--------------------------------------|
|--------------------------12----------|----|--------------------------12----------|
|-----12-----11-------------------11p0-|----|-----12-----11-------------------11p0-|
|---9------9------9-12---9------9------|----|---5------5------5-12---5------5------|
|-7------7------7------7------7--------|-x2-|-3------3------3------3------3--------|
|--------------------------------------|----|--------------------------------------|

|--------------------------------------|
|--------------------------12----------|
|-----12-----11-------------------11p0-|
|---7------7------7-12---7------7------|
|-5------5------5------5------5--------| x2
|--------------------------------------|


Verse
GTR1
|--------------------------------------|----|--------------------------------------|
|--------------------------12----------|----|--------------------------12----------|
|-----12-----11-------------------11p0-|----|-----12-----11-------------------11p0-|
|---9------9------9-12---9------9------|----|---5------5------5-12---5------5------|
|-7------7------7------7------7--------|-x2-|-3------3------3------3------3--------|
|--------------------------------------|----|--------------------------------------|

|--------------------------------------|
|--------------------------12----------|
|-----12-----11-------------------11p0-|
|---7------7------7-12---7------7------|
|-5------5------5------5------5--------| x2
|--------------------------------------|


GTR2
|-------------------|
|-------------------|
|-----------5~---7~-|
|-2~---2~---5~---7~-|
|-2~---2~---3~---5~-| x2
|-2~---2~-----------|

Then
GTR1
|---------------------------|-----------------------|
|---------------------------|-----------------------|
|-12---11----12---14---16---|-19---17----16---14----|
|---x6---x12---x6---x6---x4-|---x6---x12---x6---x12-|
|-10---9-----10---12---14---|-17---15----14---12----| x2
|---------------------------|-----------------------|

GTR2
|-------------------|
|-------------------|
|-------5-----7-----|
|-2-----5-x16-7-x16-|
|-2-x32-3-----5-----| x2
|-2-----------------|

Pre Chorus
GTR1
|----------|
|----------|
|-9--9--9--|
|-10-10-10-|
|-12-12-12-| x4
|----------|

Then
GTR1
|-------------------------------------|
|-------------------------------------|
|-9--9--9-----9--9--9-----9--9--9-----|
|-10-10-10-x4-10-10-10-x4-10-10-10-x8-|
|-12-12-12----8--8--8-----10-10-10----| x2
|-------------------------------------|

GTR2
|-----------------------------|
|-----------------------------|
|-5-5-5-----5-5-5----7-7-7----|
|-7-7-7-x4--3-3-3----5-5-5----|
|-7-7-7-----3-3-3-x4-5-5-5-x8-| x2
|-----------3-3-3----5-5-5----|

Chorus
GTR1
|-----------------------------|----|----|
|-----------------------------|----|----|
|-17----19----16----14---16---|----|----|
|---x16---x16---x16---x8---x8-|----|-2~-|
|-15----17----14----12---14---|-x2-|-2~-|
|-----------------------------|----|-2~-|

GTR2
|-------------------|----|----|
|-------------------|----|----|
|-5-----------------|----|----|
|-7-x16-3-----5-----|----|-2~-|
|-7-----3-x16-5-x32-|-x2-|-2~-|
|-------3-----5-----|----|-2~-|

Break
Repeat Verse - First Part Only
Repeat Pre Chorus
Repeat Chorus
Bridge - Slowed
GTR1 - Enters
|-|-----------------|
|-|-----------------|
|-|------5----------|
|-|-7----5-x8-5-----|
|-|-7-x8-3----5-x16-|
|-|-7---------5-----|

GTR2
|---------------------------|----|--------------------------------------|
|---------------------------|----|--------------------------------------|
|-17---/19---16---14---16---|----|-17---19---21---22---21---19---17--19-|
|---x7----x4---x6---x3---x3-|----|---x8---x3---x3---x2---x3---x3--------|
|-15---/17---14---12---14---|-x3-|-15---17---19---20---19---17---15--17-|
|---------------------------|----|--------------------------------------|

Outro
GTR1 x3
|-------------------------------------------------------------------|
|-------------------------------------------------------------------|
|-------------------------------------------------------------------|
|-----------------10-----------10/5---------------------------------|
|-----7---8------------10---------------5---7/5-----3---5p3-----7/5-|
|-7-7---7---7-7-7----7----7-7-7-----5-5---5-----5-5---5-----5-5-----|

|-----------------------------------------------------------------|
|-----------------------------------------------------------------|
|-----------------------------------------------------------------|
|-----------------2---3p2-------------------------2---3p2---------|
|-----2---3p2-----------------2h3-----2---3p2-----------------2h3-|
|-3-3---3-----3-3---3-----3-3-----3-3---3-----3-3---3-----3-3-----|

GTR2
|--------------------------------------------|
|--------------------------------------------|
|-17----19---21---22---24---22----21---19----|
|---x16---x6---x6---x4---x6---x12---x6---x12-|
|-15----17---19---20---22---20----19---17----| x3
|--------------------------------------------|

Then
GTR1
|------------------------------------------------------------------------|
|------------------------------------------------------------------------|
|-----------------5------------------------------------------------------|
|---------5-----------5--------------------------------------------3-----|
|-----8-----------------------7p5-----5---7p5-----3---5p3-----7p3--3-x12-|
|-7-7---7---7-7-7---7---7-7-7-----5-5---5-----5-5---5-----5-5------3-----|

GTR2
|------------------------------------------|
|------------------------------------------|
|-17----19---21---22---24---22---21--------|
|---x16---x6---x6---x4---x3---x3---x3-3----|
|-15----17---19---20---22---20---19---3-x3-|
|-------------------------------------3----|

4. Hospitality

Intro
GTR1
|---------------------------|
|---------------------------|
|-7-7-7-7-7-7-7-7-7-7-7-7-7-|
|-5-5-5-5-5-5-5-4-4-4-4-4-4-| x2
|-3-3-3-3-3-3-0-7-7-7-7-7-7-|
|---------------------------|

Pre Verse
GTR1
|-----------------------------|----|-------------------0-|
|-----------------------------|----|-------------------5-|
|---0-------------------------|----|-----0-----0-----0---|
|-----4-----------------------|----|---4-----4-----4-----|
|-7-----5---------------------|-x3-|-3-----3-----5-------|
|-----------------------------|----|---------------------|

GTR2
|-----------------------------|----|-------------------0-|
|---7---10---7---7---10-8-7---|----|-------------------5-|
|-7---7----7---7---7--------7-|----|-----0-----0-----0---|
|-----------------------------|----|---4-----4-----4-----|
|-----------------------------|-x3-|-3-----3-----5-------|
|-----------------------------|----|---------------------|

Then
|-----------------------------|----|---------------------|
|-----------------------------|----|---------------------|
|---0-------------------------|----|-----0-----0-----0-0-|
|-----4-----------------------|----|---4-----4-----4---4-|
|-7-----5---------------------|-x3-|-3-----3-----5-----5-|
|-----------------------------|----|---------------------|

GTR2
|-----------------------------|----|
|---7---10---7---7---10-8-7---|----|
|-7---7----7---7---7--------7-|----|
|-----------------------------|----|
|-----------------------------|-x3-|
|-----------------------------|----|

Verse
GTR1
|---------------------------------|----|-------------------0-----|
|---------------------------------|----|---------------------3---|
|------------7-------------7------|----|-----0-2---0-2---0-----0-|
|-2-----------------7--------7----|----|---4-----4-----2---------|
|-2-x9--9-10---9-10---9-10-----10-|-x3-|-3-----------------------|
|-2-------------------------------|----|-------------------------|

GTR2
|---------------------------------|----|-------------------------|
|-------7-------------------------|----|-------------------------|
|---------9--7--------9-7---------|----|-----0-----0-----0-0-----|
|-2--------------9-10-------------|----|---4-----4-----4-----4---|
|-2-x9----------------------------|-x3-|-3-----3-----5---------5-|
|-2-------------------------------|----|-------------------------|

Then
GTR1
|---------------------------------|----|---------------------|
|---------------------------------|----|---------------------|
|------------7-------------7------|----|-----0-2---0-2---0-2-|
|-2-----------------7--------7----|----|---4-----4-----4-----|
|-2-x9--9-10---9-10---9-10-----10-|-x3-|-3-------------------|
|-2-------------------------------|----|---------------------|

GTR2
|---------------------------------|----|---------------------|
|-------7-------------------------|----|---------------------|
|---------9--7--------9-7---------|----|-----0-----0-----0-0-|
|-2--------------9-10-------------|----|---4-----4-----4---4-|
|-2-x9----------------------------|-x3-|-3-----3-----5-----5-|
|-2-------------------------------|----|---------------------|

Chorus x2
GTR1
|---------------------------|----------------|---------------------------|------------|
|---------------------------|----------------|---------------------------|------------|
|-4-5--4-5--4-5--4-5--5/7-7-|-0----0----0----|-4-5--4-5--4-5--4-5--5/7-7-|-7----11----|
|-5-5--5-5--5-5--5-5--5/7-7-|-5-x6-4-x6-0-x6-|-5-5--5-5--5-5--5-5--5/7-7-|-5----11----|
|-3-3--3-3--3-3--3-3--3/5-5-|-3----5----5----|-3-3--3-3--3-3--3-3--3/5-5-|-5-x4-11-x8-|
|---------------------------|----------------|---------------------------|-5----9-----|

GTR2
|-----------------------------|-------------------------------------|
|-----------------------------|-8-----8-----10-----10-----10---10---|
|-5-4-5-4---5-4-5-4---4-5-7-7-|---5-5---5-7----7-7----7-7----7----7-|
|-5-5-5-5---5-5-5-5---5-5-5-5-|-------------------------------------|
|-----------------------------|-------------------------------------|
|-----------------------------|-------------------------------------|

|-----------------------------|-----------------------------|
|-----------------------------|-3-----3---5-5-5-5-5-5-5-5-5-|
|-5-4-5-4---5-4-5-4---4-5-7-7-|---5-5---5-------------------|
|-5-5-5-5---5-5-5-5---5-5-5-5-|-----------------------------|
|-----------------------------|-----------------------------|
|-----------------------------|-----------------------------|

Repeat Verse
Repeat Chorus
Bridge
GTR1
|------------------------------------------------------|----|---------------------|
|------------------------------------------------------|----|---------------------|
|-4-5-5-4-5-4-5-5-4-5-4-5-5-4-14---16---12---14---16---|----|-14---16---19---12---|
|-4-5-5-4-5-4-5-5-4-5-4-5-5-4---x6---x4---x2---x2---x2-|----|---x6---x4---x4---x2-|
|-2-3-3-2-3-2-3-3-2-3-2-3-3-2-12---14---10---12---14---|-x2-|-12---14---17---10---|
|------------------------------------------------------|----|---------------------|

GTR2
|-----------10---------------------7-|----|----------------7-|
|---7-8---7----10-8---7-8---7-8-10---|----|---7-8---7-8-10---|
|-7-----7-----------7-----7----------|----|-7-----7----------|
|------------------------------------|----|------------------|
|------------------------------------|-x2-|------------------|
|------------------------------------|----|------------------|

Then
GTR1
|----------------------------|
|----------------------------|
|-12-----14---16---19---12---|
|-10-------x6---x4---x4---x2-|
|-10-x16-12---14---17---10---| x2
|-10-------------------------|

GTR2
|--------------------------------------|-------------------------------15-----|
|-12h13-13-15--13--13-12h13-13--15--13-|-12h13-13-15--13--13-12h13-13------13-|
|--------------------------------------|--------------------------------------|
|--------------------------------------|--------------------------------------|
|--------------------------------------|--------------------------------------| x2
|--------------------------------------|--------------------------------------|

Then
Both
|---------------------------------|---------------------------------|
|-------3-3-3-------3-3-3-----3-3-|-------3-3-3-------3-3-3-----3-3-|
|-------4-4-4-------4-4-4-----4-4-|-------4-4-4-------4-4-4-----4-4-|
|-------2-2-2-------2-2-2-----2-2-|-5-5-5-5-5-5-5-5-5-5-5-5-5-5-5-5-|
|-2-2-2-------2-2-2-------2-2-----|-3-3-3-------3-3-3---------------|
|-2-2-2-------2-2-2-------2-2-----|---------------------------------|

|----------------------------------|
|------3-3-3-------3-3-3-----3-3-3-|
|------0-0-0-------0-0-0-----0-0-0-|
|------4-4-4-------4-4-4-----4-4-4-|
|-0-0-0------0-0-0-------0-0-----0-|
|--------------------------------0-|

Outro
GTR1
|-------------------------|
|-3-----3-----3-----3-----|
|-4-----4-----0-----0-----|
|-2-----5-x16-4-x16-4-----|
|-2-x16-3-----0-----0-x16-|
|-2-----------------0-----|

GTR2
|----------15-------------------15-----|----|-17-15----17-15----17-15-|
|-12h13-15-----15--13-12h13-15------15-|----|-------15-------15-------|
|--------------------------------------|----|-------------------------|
|--------------------------------------|----|-------------------------|
|--------------------------------------|-x3-|-------------------------|
|--------------------------------------|----|-------------------------|

Then
GTR1
|-------------------------------------|
|-3-----3-----3----------4-3------3-3-|
|-4-----4-----0----------4-4------2-2-|
|-2-----5-x16-4-x16-0----0-0-0----0-0-|
|-2-x16-3-----0-----0-x8-0-0-0-x8-0-0-|
|-2-----------------0----0-0-0----0-0-|

GTR2
|----------15-------------------15-----|----|-17-15----17-15----17-15-|
|-12h13-15-----15--13-12h13-15------15-|----|-------15-------15-------|
|--------------------------------------|----|-------------------------|
|--------------------------------------|----|-------------------------|
|--------------------------------------|-x3-|-------------------------|
|--------------------------------------|----|-------------------------|

Then
GTR1
|---------------------------------|---------------------------------|--------------------------------|
|-------3-3-3-------3-3-3-----3-3-|-------3-3-3-------3-3-3-----3-3-|------3-3-3-------3-3-3-----3-3-|
|-------4-4-4-------4-4-4-----4-4-|-------4-4-4-------4-4-4-----4-4-|------0-0-0-------0-0-0-----0-0-|
|-------2-2-2-------2-2-2-----2-2-|-5-5-5-5-5-5-5-5-5-5-5-5-5-5-5-5-|------4-4-4-------4-4-4-----4-4-|
|-2-2-2-------2-2-2-------2-2-----|-3-3-3-------3-3-3---------------|-0-0-0------0-0-0-------0-0-----|
|-2-2-2-------2-2-2-------2-2-----|---------------------------------|--------------------------------|

|-------------------|
|------3-3------3-3-|
|------4-4------2-2-|
|-0----0-0-0----0-0-|
|-0-x8-0-0-0-x8-0-0-|
|-0----0-0-0----0-0-|

GTR2
|----------15-------------------15-----|----|-17-15----17-15----17-15-|
|-12h13-15-----15--13-12h13-15------15-|----|-------15-------15-------|
|--------------------------------------|----|-------------------------|
|--------------------------------------|----|-------------------------|
|--------------------------------------|-x3-|-------------------------|
|--------------------------------------|----|-------------------------|

Then
GTR1
|-------------------------|
|-3-----3-----3-----3-----|
|-4-----4-----0-----0-----|
|-2-----5-x16-4-x16-4-----|
|-2-x16-3-----0-----0-x16-|
|-2-----------------0-----|

GTR2
|----------15-------------------15-----|----|-17-15----17-15----17-15-|
|-12h13-15-----15--13-12h13-15------15-|----|-------15-------15-------|
|--------------------------------------|----|-------------------------|
|--------------------------------------|----|-------------------------|
|--------------------------------------|-x3-|-------------------------|
|--------------------------------------|----|-------------------------|

5. Drive
Verse
GTR1
|-2---3~--2---3~--5---3~--5---3~-|
|---3~------3~------3~------3~---|
|--------------------------------|
|--------------------------------|
|--------------------------------|
|--------------------------------|

GTR2
|-------------------|
|-------------------|
|-------------------|
|-9-----7-----5-----|
|-9-x16-7-x16-5-x32-|
|-9-----7-----5-----|

Chorus One
GTR1
|-------------------------|---------------------------------|
|-------------------------|---------------------------------|
|-------4-----------4-----|-7-----7-----7-----7-----7-------|
|-5-5h7---7-5-5-5h7---7-5-|---5-5---5-5---5-5---5-5---5-5-5-|
|-------------------------|---------------------------------|
|-------------------------|---------------------------------|

Repeat Verse
Chorus Two
GTR1
|-------------------------|---------------------------------|
|-------------------------|---------------------------------|
|-------4-----------4-----|-7-----7-----7-----7-----7-------|
|-5-5h7---7-5-5-5h7---7-5-|---5-5---5-5---5-5---5-5---5-5-5-|
|-------------------------|---------------------------------|
|-------------------------|---------------------------------|

GTR2
|-------------------|
|-------------------|
|-------7-----5-----|
|-9-----7-----5-----|
|-9-x16-5-x16-3-x32-|
|-9-----------------|

Bridge
GTR1
|-15--------14-------15--------------------15-------14-------15-------|
|----15--------15-------15-----------12-15----15-------15-------15----|
|-------12--------12-------12--12h14-------------12-------12-------12-|
|---------------------------------------------------------------------|
|---------------------------------------------------------------------| x2
|---------------------------------------------------------------------|

Then
GTR1
|-------------------------------------------------------|
|----------------------------------13-12----------13-12-|
|-12-12h14-14-12-12-12h14-14-12-12-------14-12-12-------|
|-------------------------------------------------------|
|-------------------------------------------------------| x2
|-------------------------------------------------------|

GTR2
|-------------------------|
|-------------------------|
|-5-----7-----9-----7-----|
|-5-----7-----9-----7-----|
|-3-x16-5-x16-7-x16-5-x16-|
|-------------------------|

Repeat Chorus
Bridge
GTR1
|-15--------14-------15--------------------15-------14-------15-------|
|----15--------15-------15-----------12-15----15-------15-------15----|
|-------12--------12-------12--12h14-------------12-------12-------12-|
|---------------------------------------------------------------------|
|---------------------------------------------------------------------| x2
|---------------------------------------------------------------------|

Outro
GTR1
|-----------------------------------------------------------------|
|---------0---------------0---------------0---------------0-------|
|-----------0---0-----------0---0-----------0---0-----------0---0-|
|-----5-------5-------5-------5-------5-------5-------5-------5---|
|-3-3---3---------3-3---3---------5-5---5---------5-5---5---------|
|-----------------------------------------------------------------|

|-----------------------------------------------------------------|
|---------0---------------0---------------0---------------0-------|
|-----------0---0-----------0---0-----------0---0-----------0---0-|
|-----5-------5-------5-------5-------5-------5-------5-------5---|
|---------------------------------5-5---5---------5-5---5---------|
|-2-2---2---------2-2---2-----------------------------------------|

6. Monsters
Intro
GTR1
|-------------------------------------------------|
|----------15-15-15----------15-15-15-------15-15-|
|-14-14-14-14-14-14-14-14-14-14-14-14-14-14-14-14-|
|-------------------------------------------------|
|-12-12-12-12-12-12-12-12-12-12-12-12-12-12-12-12-|
|-------------------------------------------------|

GTR2 - Enters
|-----------------------------------------------------------------|
|-----------------------------------------------------------------|
|-----------------------------------------------------------------|
|-8-8-8-5-5-5-7-7-7-3-3-3-5-5-2-2-3-3-3-5-5-5-2-2-2-3-3-3-0-0-0-0-|
|-8-8-8-5-5-5-7-7-7-3-3-3-5-5-2-2-3-3-3-5-5-5-2-2-2-3-3-3-0-0-0-0-|
|-8-8-8-5-5-5-7-7-7-3-3-3-5-5-2-2-3-3-3-5-5-5-2-2-2-3-3-3-0-0-0-0-|

Verse
GTR1
|------------------------------------------|----|-------------------------------------------|
|------------------------------13-------15-|----|-------------------------------------------|
|-14-14--14-14--14-14----14-------14-------|----|-14-14--14-14--14-14--17-17-17-17/19-19-19-|
|---------------------12----12-------12----|----|-------------------------------------------|
|-12-12--12-12--12-12----------------------|-x3-|-12-12--12-12--12-12--15-15-15-15/17-17-17-|
|------------------------------------------|----|-------------------------------------------|

GTR2
|-----------------------------------------------------------------|
|-----------------------------------------------------------------|
|-----------------------------------------------------------------|
|-----------------------------------------------------------------|
|-8-8-8-5-5-5-7-7-7-3-3-3-5-5-2-2-3-3-3-5-5-5-2-2-2-3-3-3-0-0-0-0-| x2
|-8-8-8-5-5-5-7-7-7-3-3-3-5-5-2-2-3-3-3-5-5-5-2-2-2-3-3-3-0-0-0-0-|

Then
GTR1
|-------------------------------------------------|
|----------15-15-15----------15-15-15-------15-15-|
|-14-14-14-14-14-14-14-14-14-14-14-14-14-14-14-14-|
|-------------------------------------------------|
|-12-12-12-12-12-12-12-12-12-12-12-12-12-12-12-12-|
|-------------------------------------------------|

GTR2 - Enters
|-----------------------------------------------------------------|
|-----------------------------------------------------------------|
|-----------------------------------------------------------------|
|-8-8-8-5-5-5-7-7-7-3-3-3-5-5-2-2-3-3-3-5-5-5-2-2-2-3-3-3-0-0-0-0-|
|-8-8-8-5-5-5-7-7-7-3-3-3-5-5-2-2-3-3-3-5-5-5-2-2-2-3-3-3-0-0-0-0-|
|-8-8-8-5-5-5-7-7-7-3-3-3-5-5-2-2-3-3-3-5-5-5-2-2-2-3-3-3-0-0-0-0-|

Then
GTR1
|------------------------------------------|----|-------------------------------------------|
|------------------------------13-------15-|----|-------------------------------------------|
|-14-14--14-14--14-14----14-------14-------|----|-14-14--14-14--14-14--17-17-17-17/19-19-19-|
|---------------------12----12-------12----|----|-------------------------------------------|
|-12-12--12-12--12-12----------------------|-x3-|-12-12--12-12--12-12--15-15-15-15/17-17-17-|
|------------------------------------------|----|-------------------------------------------|

GTR2
|-----------------------------------------------------------------|
|-----------------------------------------------------------------|
|-----------------------------------------------------------------|
|-----------------------------------------------------------------|
|-8-8-8-5-5-5-7-7-7-3-3-3-5-5-2-2-3-3-3-5-5-5-2-2-2-3-3-3-0-0-0-0-| x2
|-8-8-8-5-5-5-7-7-7-3-3-3-5-5-2-2-3-3-3-5-5-5-2-2-2-3-3-3-0-0-0-0-|

Chorus
GTR1
|-------------------------------------------------|-----------------------------------------------|
|-------------------------------------------------|----10---------------10---------------10-------|
|----------14-14-14----------14-14-14-------14-14-|----------10-12-9----------10-12-9----------10-|
|-12-12-12----------12-12-12----------12-12-------|-12----12---------12----12---------12----12----|
|----------12-12-12----------12-12-12-------12-12-|-----------------------------------------------|
|-12-12-12----------12-12-12----------12-12-------|-----------------------------------------------|

GTR2
|-----------------|
|-----------------|
|-----------------|
|-8-----5----7----|
|-8-x16-5-x8-7-x8-|
|-8-----5----7----|

Repeat Verse
Repeat Chorus
Bridge
GTR1
|---------------------------------------------------------------|----|
|---------------------------------------------------------------|----|
|-5-5-5-5-5-5-5-5-5-5-5-5-5-------5-5-5-5-5-5-5-5-5-7-7-7-------|----|
|---------------------------8-8-8-------------------------8-8-8-|----|
|---------------------------------------------------------------|-x2-|
|---------------------------------------------------------------|----|

|---------------------------------|----|----|
|---------------------------------|----|----|
|-5-5-5-7-7-7---------------------|----|----|
|-------------5-5-5-7-7-7-7-------|----|-5~-|
|---------------------------8-8-8-|-x3-|----|
|---------------------------------|----|----|


Repeat Chorus
Outro 
GTR1
|-----------------------------------------------------------------|
|-----------------------------------------------------------------|
|-----------------------------------------------------------------|
|-8-8-8-5-5-5-7-7-7-3-3-3-5-5-2-2-3-3-3-5-5-5-2-2-2-3-3-3-0-0-0-0-|
|-8-8-8-5-5-5-7-7-7-3-3-3-5-5-2-2-3-3-3-5-5-5-2-2-2-3-3-3-0-0-0-0-|
|-8-8-8-5-5-5-7-7-7-3-3-3-5-5-2-2-3-3-3-5-5-5-2-2-2-3-3-3-0-0-0-0-|

|---------------------------------------------|
|---------------------------------------------|
|---------------------------------------------|
|-8---5---7---3---5--2--3-3--5-5--2-2--3-3--0-|
|-8---5---7---3---5--2--3-3--5-5--2-2--3-3--0-|
|-8---5---7---3---5--2--3-3--5-5--2-2--3-3--0-|

7. History
Intro
GTR1
|--------------------|
|--------------------|
|-11-----7-----9-----|
|-9------5-----7-----|
|-9--x12-5-x12-7-x12-|
|-9------5-----7-----|

Chorus
GTR1
|--------------------------|
|--------------------------|
|-11-----7-----7-----9-----|
|-9------5-----7-----7-----|
|-9--x12-5-x12-0-x12-7-x12-|
|-9------5-----0-----7-----|

GTR2
|-------------------|----|-------------------|
|-------------------|----|-------------------|
|----11----12----14-|----|----11----12----11-|
|-12----12----12----|----|-12----12----12----|
|-------------------|-x3-|-------------------|
|-------------------|----|-------------------|

Verse
GTR1
|--------------------|
|--------------------|
|-11-----7-----9-----|
|-9------5-----7-----|
|-9--x12-5-x12-7-x24-|
|-9------5-----7-----|

GTR2
|-------------------------------------------------------|
|-------------------------------------------------------|
|-------7-------------7-------------6-----------6-------|
|-----7---7---------7---7---------7---7-------7---7-----|
|---9-------9-----9-------9-----9-------9---9-------9---|
|-9-----------9-9-----------9-9-----------9-----------9-|

Bridge
GTR1                                    
|-----------------------------|
|-----------------------------|
|-11-----11------11-----9-----|
|-9------9-------9--x12-7-x12-|
|-9--x12-10-x12--12-----9-----|
|-9------9--------------------|

Outro
GTR1
|--------------------|
|--------------------|
|-11-----7-----9-----|
|-9------5-----7-----|
|-9--x12-5-x12-7-x12-|
|-9------5-----7-----|

8. Recovery
Intro/Verse
GTR1
|--------------------------------5---4-------------------------------------|
|----------------7---9-------------------5---------------------------------|
|--------6---4/6---6---6---------------------4h6p4-------------------------|
|-4--4-7---7-------------2----4--------------------2----0-7---6---7---9h11-|
|-4----------------------2--2-4--------------------2--2-0------------------|
|-4----------------------2--2-4----4---4---4-------2--2-0---0---0---0------|

--------------------------------------------|
--------------------------------------------|
----9/11-11---------------11/13-13-13-13-11-|
--------------7---6---7---------------------|
----7/9--9----------------9-/11-11-11-11-9--|
0-0---------0---0---0---0-------------------|

GTR2
|-----------------------------------------------------------------------------|
|-----------------------------------------------------------------------------|
|-----------------------------------------------------------------------------|
|-4----------------------2----4--------------------2----0---------------------|
|-4--4-4-4-4-4-4-4-4-4-4-2--2-4--4-4-4-4-4-4-4-4-4-2--2-0-0-0-0-0-0-0-0-0-0-0-|
|-4--4-4-4-4-4-4-4-4-4-4-2--2-4--4-4-4-4-4-4-4-4-4-2--2-0-0-0-0-0-0-0-0-0-0-0-|

-----------------------------------|
-----------------------------------|
-----------------------------------|
-0-0--0--------------------------0-|
-0-0--0--0-0-0-0-0-0-0-0-0-0-0-0-0-|
-0-0--0--0-0-0-0-0-0-0-0-0-0-0-0-0-|

Chorus
GTR1
|--------12----9h10p9---------------|
|-----10----10--------10------------|
|---9--------------------9----------|
|-9------------------------11--9--7-|
|-----------------------------------|
|-----------------------------------|

GTR2
|-------------|
|-------------|
|-9-----9-----|
|-9-x12-7-x12-|
|-7-----9-----|
|-------------|

Repeat Verse
Repeat Chorus
Then
GTR1
|-----------------------------------|----|-------------------------------------|
|-----------------------------------|----|-------------------------------------|
|-7--9--11--13-13-13-13-14-14-14-14-|----|-11--13--14--16-16-16-16-18-18-18-18-|
|-----------------------------------|----|-------------------------------------|
|-5--7--9---11-11-11-11-12-12-12-12-|-x3-|-9---11--12--14-14-14-14-16-16-16-16-|
|-----------------------------------|----|-------------------------------------|

GTR2
|-------------|
|-------------|
|-7-----9-----|
|-7-x12-9-x12-|
|-5-----7-----|
|-------------|

Interlude
GTR1
|----------------|-|----------------17-------------------|
|----12-14-15-17-|-|----12-14-15-17----17-15-14-15-14-12-|
|-14-------------|-|-14----------------------------------|
|----------------|-|-------------------------------------|
|----------------|-|-------------------------------------|
|----------------|-|-------------------------------------|

GTR2
|-----------------------------------------------------|
|-----------------------------------------------------|
|---------7-7-7--7-7-7--------------------------------|
|-4-4-4-4-7-7-7--7-7-7-2-2-2--2-2-2-2-2-2-2---2h4-----|
|-4-4-4-4-5-5-5--5-5-5-2-2-2--2-2-2-2-2-2---------2-2-|
|-4-4-4-4-0-0-0--0-0-0-2-2-2--2-2-2-2-2-2---2-----2-2-|

Then
GTR1
|-----|
|-----|
|-14~-|
|-----|
|-----|
|-----|

GTR2
|----|
|----|
|----|
|-0~-|
|-0~-|
|-0~-|

Bridge
GTR1
|-----------------|-|-----------------------------4p0-|
|---------7-------|-|---------------------------------|
|---6-------6-----|-|-------------------------4-------|
|-4---7-4-----7-4-|-|-------7-----------4-6-7---7-----|
|-----------------|-|-0-4-5---5-4-0-4-0---------------|
|-----------------|-|---------------------------------|

GTR2
|-------12--------|-|-------12----------12----|
|----10----10-----|-|----10----10----10----10-|
|-11----------11--|-|-11----------11----------|
|-----------------|-|-------------------------|
|-----------------|-|-------------------------|
|-----------------|-|-------------------------|

Repeat Interlude
Outro
Both
|---------|
|---------|
|---------|
|-0-------|
|-0-xlots-|
|-0-------|

9. The End Of Nothing
Intro
GTR1
|------------------|---------|
|------------------|---------|
|------------------|---------|
|-7---5------------|---------|
|-------8-7--5-3-5-|-0-xlots-|
|------------------|-0-------|

GTR2
|------------------|---------|
|------------------|---------|
|------------------|---------|
|-10--8-7----------|-0~------|
|---------10-8-7-8-|-0~------|
|------------------|-0~------|

Verse
GTR1
|---------------------------------|-------------------------------|
|---------------------------------|-------------------------------|
|---------------------------------|-------------------------------|
|-0-------------------------------|-------7---8---------7---5---7-|
|-0-----10-8----8-10-8----12-10-8-|-----------------8-------------|
|-0-0-0------12--------12---------|-8-8-8---8---8-8---0---0---0---|

|---------------------------------|--------------------------------|
|---------------------------------|--------------------------------|
|---------------------------------|--------------------------------|
|---------------------------------|-------7---7---------10---8---7-|
|-------10-8----8-10-8----12-10-8-|-----------------8--------------|
|-0-0-0------12--------12---------|-8-8-8---8---8-8---0----0---0---|


GTR2
|----------|---------------------------------|
|----------|---------------------------------|
|-7---10---|---------------------------------|
|--x6---x6-|-0-------------------------------|
|-5---8----|-0-----8---10-----8---7---10---8-|
|----------|-0-0-0---0----0-0---0---0----0---|

Pre Chorus
GTR1
|---------------------|---------------------|--------------------|---------------------|
|---------------------|---------------------|--------------------|---------------------|
|---------------------|---------------------|--------------------|---------------------|
|---------------------|---------------------|--------------------|---------------------|
|-------------7-5-8-5-|------------8-7-10-7-|------------7-5-8-5-|---------7-8-7-------|
|-0-0-0--0-0----------|-0-0-0--0-0----------|-0-0-0--0-0---------|-10-7-10-------10-12-|

GTR2
|---------------------|------------------------|------------------------|---------------------|
|---------------------|------------------------|------------------------|---------------------|
|-------------9-9-9-9-|------------10-10-10-10-|------------12-12-12-12-|---------------------|
|---------------------|------------------------|------------------------|---------------------|
|-------------7-7-7-7-|------------8--8--8--8--|------------10-10-10-10-|---------7-8-7-------|
|-0-0-0--0-0----------|-0-0-0--0-0-------------|-0-0-0--0-0-------------|-10-7-10-------10-12-|

Then
GTR1
|---|
|---|
|-7-|
|-7-|
|-5-|
|---|

GTR2
|----|
|----|
|-14-|
|----|
|-12-|
|----|

Chorus
GTR1
|-------------------|-------------------------|------------------------|-----------------|
|-------------------|-------------------------|------------------------|-----------------|
|-------------------|-------------------------|------------------------|-----------------|
|-8-----10----------|-10-------10-------------|-12----------------15/7-|-----2-3-2-------|
|-8------------12---|-10----------------12----|-12-------15-12---------|-5-3-------5-3-1-|
|-8-8-8----8-8----8-|-10-10-10----10-10----10-|-12-12-12-------12------|-----------------|

|-------------------|-------------------------|------------------------|---------------|
|-------------------|-------------------------|------------------------|---------------|
|-------------------|-------------------------|------------------------|---------------|
|-8-----10----------|-10-------10-------------|-12----------------15/7-|-7-5-----------|
|-8------------12---|-10----------------12----|-12-------15-12---------|-----8-7-5-3-5-|
|-8-8-8----8-8----8-|-10-10-10----10-10----10-|-12-12-12-------12------|---------------|

GTR2
|-----|-----|------|-----------------|
|-----|-----|------|-----------------|
|-7---|-9---|-10---|-----------------|
|--x6-|--x6-|---x6-|-----7-8-7-------|
|-5---|-7---|-8----|-8-7-------8-7-5-|
|-----|-----|------|-----------------|

|-----|-----|------|-----------------|
|-----|-----|------|-----------------|
|-7---|-9---|-10---|-----------------|
|--x6-|--x6-|---x6-|-10-8-7----------|
|-5---|-7---|-8----|--------10-8-7-8-|
|-----|-----|------|-----------------|

Post Chorus
GTR1
|---------|
|---------|
|---------|
|---------|
|-0-xlots-|
|-0-------|

GTR2
|----|
|----|
|----|
|-0~-|
|-0~-|
|-0~-|

Repeat Verse
Repeat Pre Chorus
Repeat Chorus
Post Chorus
GTR1
|--------------------------------------|
|--------------------------------------|
|--------------------------------------|
|----------------10---8-------------0~-|
|-7-10-12-10-8-7--------12-10-8-7-8-0~-|
|-----------------------------------0~-|

GTR2
|---------------------------------|
|---------------------------------|
|---------------------------------|
|--------------7---5-----------0~-|
|-5-7-8-7-5----------8-7-5-3-5-0~-|
|-----------10-----------------0~-|

Bridge
Both
|---------|
|---------|
|---------|
|---------|
|-0-xlots-|
|-0-------|

Then
GTR1
|----------------------|
|----------------------|
|----------------------|
|----------------------|
|-0-xlots--------------|
|-0-------7h10p7-7h9p7-|

GTR2
|----------------------|
|----------------------|
|----------------------|
|----------------------|
|-0-xlots-5h8p5-4h7p4--|
|-0--------------------|

Repeat Chorus
Outro
GTR1
|------------------|
|------------------|
|------------------|
|------------------|
|-7-10-12-10-8-7-8-|
|------------------|

GTR2
|----------------|
|----------------|
|----------------|
|----------------|
|-5-7-8-7-5----5-|
|-----------10---|

11. Alvarez
Intro
GTR1
|---------------------------|----------------------------|
|---------------------------|----------------------------|
|---------------------------|----------------------------|
|-------------6---8---9p8---|-------------6---8---11p8---|
|---------9---------------9-|---------9----------------9-|
|-6-6-6-6---6---6---6-------|-6-6-6-6---6---6---6--------|

|----------------------------|----------------------------|
|----------------------------|----------------------------|
|----------------------------|-----------------8----------|
|-------------6---11p8-----8-|-------------6-----8---11p8-|
|-7-7-7-7-9-7---7------9p6---|-7-7-7-7-9-7---7-----9------|
|----------------------------|----------------------------|

GTR2
|--------|
|--------|
|--------|
|-6~--2~-|
|-6~--2~-|
|-6~--2~-|

Chorus
GTR1
|----------------------------------------|
|----------16----14----14----14----------|
|-13~---------13----13----13----13-11-13-|
|----------------------------------------|
|-11~------------------------------------|
|----------------------------------------|

GTR2
|------------------|
|------------------|
|------------------|
|-6-----2-----4----|
|-6-x16-2-x12-4-x4-|
|-6-----2-----4----|

Verse
GTR1
|---------------------------|----------------------------|
|---------------------------|----------------------------|
|---------------------------|----------------------------|
|-------------6---8---9p8---|-------------6---8---11p8---|
|---------9---------------9-|---------9----------------9-|
|-6-6-6-6---6---6---6-------|-6-6-6-6---6---6---6--------|

|----------------------------|----------------------------|
|----------------------------|----------------------------|
|----------------------------|-----------------8----------|
|-------------6---11p8-----8-|-------------6-----8---11p8-|
|-7-7-7-7-9-7---7------9p6---|-7-7-7-7-9-7---7-----9------|
|----------------------------|----------------------------|

GTR2
|-----------------------------|----|----11-|
|-----------------------------|----|-------|
|-13--13-13-13-11-11-11-------|----|-13----|
|-----------------------13-11-|----|-------|
|-----------------------------|-x2-|-------|
|-----------------------------|----|-------|

Pre Chorus
GTR1
|---------------------------|----|-----------------------|
|---------------------------|----|-----------------------|
|---------3---4-------------|----|---------4p3---9-9-9-8-|
|-----------------4-------4-|----|-------------4---------|
|---------------------6h7---|-x7-|---------------7-7-7-6-|
|-4-4-4-4---4---4---4-------|----|-4-4-4-4---------------|

GTR2
|------------------------|----|----------|
|------------------------|----|----------|
|-11--11-11-11-9-9-9-8---|----|--------8-|
|----------------------9-|----|-9--11----|
|------------------------|-x2-|----------|
|------------------------|----|----------|

Repeat Chorus
Repeat Verse
Repeat Pre Chorus
Repeat Chorus
Bridge
GTR1
|-------------------------|----|-------------------------|----|
|-16----14----12----14----|----|-14----12----11----12----|----|
|----13----13----13----13-|----|----11----11----11----11-|----|
|-------------------------|----|-------------------------|----|
|-------------------------|-x2-|-------------------------|-x2-|
|-------------------------|----|-------------------------|----|

GTR2
|----------------------|----|-------|
|----------------------|----|-------|
|----------------------|----|-------|
|-6----8----9----11----|----|-4-----|
|-6-x3-8-x3-9-x3-11-x3-|-x2-|-4-x12-| x2
|-6----8----9----11----|----|-4-----|

|----------------------|
|----------------------|
|----------------------|
|-6----8----9----11----|
|-6-x3-8-x3-9-x3-11-x3-| x3
|-6----8----9----11----|

Outro
GTR1
|-----------------------------------------------------|
|-----------------------------------------------------|
|---------11-9-8-----------11-9-8---------------------|
|-9--11----------9---9--11--------9--9-11-9-9h13p11-9-|
|-----------------------------------------------------|
|-----------------------------------------------------|

------------------------------------------------|
------------------------------------------------|
---------------------8---8h9p8------8---8h9p8---|
-9-11-9-9h13p11-9--9---9-------9--9---9-------9-|
------------------------------------------------| x4
------------------------------------------------|


GTR2
|---------------------|
|---------------------|
|---------------------|
|-9----4----2----4----|
|-9-x8-4-x8-2-x8-4-x8-| x4
|-9----4----2----4----|

11. Sonny
Intro
GTR1
|----|
|----|
|----|
|-0~-|
|-0~-|
|-0~-|

Verse
GTR1
|----------------------------------------|
|----------------------------------------|
|----7-7------10-10------7-7------9-9----|
|----------------------------------------|
|----------------------------------------| x2
|-0-------0-8--------0-5------0-7------0-|

Chorus
GTR1
|-----------------------|
|-----------------------|
|-10----7----7----12----|
|-8-----5----7----10----|
|-8--x8-5-x8-5-x8-10-x8-| x4
|-8-----5----0----10----|

GTR2
|--------------------12----12-12----12--13----13-13----13--15----15-15----15-|
|-15----15-15----15----------------------------------------------------------|
|----14-------14--------14-------14--------14-------14--------14-------14----|
|----------------------------------------------------------------------------|
|----------------------------------------------------------------------------| x4
|----------------------------------------------------------------------------|

GTR3
|-----8-|
|---6---|
|-7-----|
|-------|
|-------| x8
|-------|

Post Chorus
GTR1
|-----------------|
|-----------------|
|-7-/-10---9-/-12-|
|-----------------|
|-----------------|
|-----------------|

GTR2
|-10--13--12--8-|
|---------------|
|---------------|
|---------------|
|---------------|
|---------------|

Verse Two
GTR1
|----------------------------------------|
|----------------------------------------|
|----7-7------10-10------7-7------9-9----|
|----------------------------------------|
|----------------------------------------| x2
|-0-------0-8--------0-5------0-7------0-|

GTR2
|-12-----------------------12-------10-------------12-|
|------11---10---11---13-------13--------11---10------|
|-----------------------------------------------------|
|-----------------------------------------------------|
|-----------------------------------------------------|
|-----------------------------------------------------|

GTR3
|-----5-|
|---6---|
|-7-----|
|-------|
|-------| x8
|-------|

Repeat Chorus
Repeat Post Chorus
Outro
GTR1 & GTR3
|---------------------|
|---------------------|
|-9/7-7-7-7-7-9/7-7---|
|------------------x8-|
|-7/5-5-5-5-5-7/5-5---| x4
|---------------------|

GTR2
|--------------------12----12-12----12--13----13-13----13--15----15-15----15-|
|-15----15-15----15----------------------------------------------------------|
|----14-------14--------14-------14--------14-------14--------14-------14----|
|----------------------------------------------------------------------------|
|----------------------------------------------------------------------------| x4
|----------------------------------------------------------------------------|

Then
GTR1
|-----------------------------|
|-----------------------------|
|-9/-10-/12---/10--/9---/10---|
|-----x8---x8----x4--x3----x8-|
|-7/-8--/10---/8---/7---/8----|
|-----------------------------|

GTR2
|-17----17-17----17-15----15-18-18-17----17-17----17-15----15-18-18-|
|----15-------15-------15-------------15-------15-------15----------|
|-------------------------------------------------------------------|
|-------------------------------------------------------------------|
|-------------------------------------------------------------------|
|-------------------------------------------------------------------|

|-20---20-20----20-20----17----17-18-18-17----17-17----17-15----15-18-18-|
|----15------15-------15----15-------------15-------15-------15----------|
|------------------------------------------------------------------------|
|------------------------------------------------------------------------|
|------------------------------------------------------------------------|
|------------------------------------------------------------------------|

GTR3
|---------------------|
|---------------------|
|-9/7-7-7-7-7-9/7-7---|
|------------------x8-|
|-7/5-5-5-5-5-7/5-5---| x4
|---------------------|

End On
GTR1
|-----------------|
|-----------------|
|-7-/-10---9-/-12-|
|-----------------|
|-----------------|
|-----------------|

GTR2
|-10--13--12--8-|
|---------------|
|---------------|
|---------------|
|---------------|
|---------------|


comments
We did not receive enough feedback on this tab! Please rate:
print report bad tab
1 2 3 4 5
I want to post or [tab]
guest
You may want to rate the tab now too:
select rating
Please do not post tabs as comments. Select "correction" instead!