Oops, an error
Loading. Please wait.

Juneau Tab

ver4
ver4

Whole song

More versions @911Tabs.com
21,591 views 9 this week
3 commentsread comments
1 2 3 4 5
excellent!
x 3
Autoscroll
+/-
esc
set tempo
stop
Contributor
Difficulty
intermediate
WARNING: You are trying to view
                                    content from Ultimate-Guitar.com
                                    in an unauthorized application,
                                    which is prohibited.

                                    Please use an official Ultimate
                                    Guitar Tabs application for iPhone,
                                    iPad or Android to access legitimate
                                    chords, guitar, bass, and drum tabs
                                    from Ultimate-Guitar.com database.

                                    Type "ultimate guitar tabs" in Apple
                                    App Store's or Android Market's
                                    search to find the application.
I'm pretty sure this is right, I'm setting it up down here so it is one easier for
and easier for any other person to learn guitar one.  Sorry if you dont like it cause theres
guitar two,get over it and find another tab with it. This is also one of my first few 
so cut me a little slack =) good luck.

This is only GUITAR ONE

The tabs should be correct, it might be possible I messed up on how much or long it
be played, but you should be able to figure the most of it out with what is provided.

*******GUITAR ONE*******
Intro
|---------------------------------------------------------------------------|
|---------------------------------------------------------------------------|
|---12-12-12-12-12-12-12-12---12-12-12-12-12-12-12---12-12-12-12-12-12-1212-|
|---10-10-10-10-10-10-10-10---10-10-10-10-10-10-10---10-10-10-10-10-10-1010-|
|---8--8--8--8--8--8--8--8----8--8--8--8--8--8--8----8--8--8--8--8--8--8----|
|---------------------------------------------------------------------------|

|-----------------------------------------------------------------------|
|-----------------------------------------------------------------------|
|---12-12-12-12-12-12-12---12-12-12-12-12-12-12---10-10-10-10-10-10-10--|
|---10-10-10-10-10-10-10---10-10-10-10-10-10-10---10-10-10-10-10-10-10--|
|---8--8--8--8/-10-10-10---12-12-12-12-12-12-12---12-12-12-12-12-12-12--|
|-----------------------------------------------------------------------|

|-------------------------------|
|-------------------------------|
|---9--9--9--9--9--9--9----12~--|
|---10-10-10-10-10-10-10---10~--|
|---12-12-12-12-12-12-12---10~--|
|-------------------------------|

Verse one
|--------------------------------------------------------------|
|--------------------------------------------------------------|
|-------5-5-5-5-5-5-5-5--5-5-5-5-5-5-5--5-5-5-5-5-5-5--5-5-5-5-|
|---10/-3-3-3-3-3-3-3-3--3-3-3-3-3-3-3--3-3-3-3-3-3-3--3-3-3-3-|
|---10/-3-3-3-3-3-3-3-3--3-3-3-3-3-3-3--3-3-3-3-3-3-3--3-3-3-3-|
|---10/-3-3-3-3-3-3-3-3--3-3-3-3-3-3-3--3-3-3-3-3-3-3--3-3-3-3-|

|--------------------------------|
|--------------------------------|
|--------------------------------|
|---10-10-10-10-10-10-10-10-9-10-|
|---7--7--7--7--7--7--7--7--7-7--|
|---7--7--7--7--7--7--7--7--7-7--|

Chorus
|-----------------------------------------------------------|
|-----------------------------------------------------------|
|----5-5-5-5-5-5-5-5--5-5-5-5-5-5-5--5-5-5-5-5-5-5--5-5-5-5-|
|----3-3-3-3-3-3-3-3--3-3-3-3-3-3-3--3-3-3-3-3-3-3--3-3-3-3-|
|----3-3-3-3-3-3-3-3--3-3-3-3-3-3-3--3-3-3-3-3-3-3--3-3-3-3-|
|----3-3-3-3-3-3-3-3--3-3-3-3-3-3-3--3-3-3-3-3-3-3--3-3-3-3-|

|--------------------------------|
|--------------------------------|
|--------------------------------|
|---10-10-10-10-10-10-10-10-9-10-|
|---7--7--7--7--7--7--7--7--7-7--|
|---7--7--7--7--7--7--7--7--7-7--|

Verse two
|-------------------------------------|
|-------------------------------------|
|---5-5-5-5-5-5-5-5--5-5-5-5-5-5-5-5--|
|---3-3-3-3-3-3-3-3--3-3-3-3-3-3-3-3--|
|---3-3-3-3-3-3-3-3--3-3-3-3-3-3-3-3--|
|---3-3-3-3-3-3-3-3--3-3-3-3-3-3-3-3--|

|---------------------------------------------|
|---------------------------------------------|
|---9-9-9-9-9-9-9-9-10-10-10-10-9-9-9-9--7--5-|
|---7-7-7-7-7-7-7-7-7--7--7--7--7-7-7-7--5--3-|
|---7-7-7-7-7-7-7-7-7--7--7--7--7-7-7-7--5--3-|
|---7-7-7-7-7-7-7-7-7--7--7--7--7-7-7-7--5--3-|

|-------------------------------------------|
|---5-5-5-----------------------------------|
|-----------7-7-7--5-5-5--7-7-7-5~----------|
|-------------------------------------------|
|-------------------------------------------|
|-------------------------------------------|

Chorus x2 I think
|-----------------------------------------------------------|
|-----------------------------------------------------------|
|----5-5-5-5-5-5-5-5--5-5-5-5-5-5-5--5-5-5-5-5-5-5--5-5-5-5-|
|----3-3-3-3-3-3-3-3--3-3-3-3-3-3-3--3-3-3-3-3-3-3--3-3-3-3-|
|----3-3-3-3-3-3-3-3--3-3-3-3-3-3-3--3-3-3-3-3-3-3--3-3-3-3-|
|----3-3-3-3-3-3-3-3--3-3-3-3-3-3-3--3-3-3-3-3-3-3--3-3-3-3-|

|--------------------------------|
|--------------------------------|
|--------------------------------|
|---10-10-10-10-10-10-10-10-9-10-|
|---7--7--7--7--7--7--7--7--7-7--|
|---7--7--7--7--7--7--7--7--7-7--|

Interlude (I'm not one hundred percent sure on this part, it was kinda hard to hear, I
a little extra help for this)
|-----------------------------------------------------|
|-----------------------------------------------------|
|--------12-------12--------------12-------12---------|
|-----10-------10-------10-----10-------10--------10--|
|---8--------8--------8------8--------8---------8-----|
|-----------------------------------------------------|

|--------------------------------------------------------|
|--------------------------------------------------------|
|--------12--------12----------------12--------12--------|
|------9---------9---------9-------9---------9--------9--|
|---12--------12--------12------12--------12-------12----|
|--------------------------------------------------------|

|-----------------------------------------------------|
|-----------------------------------------------------|
|--------12-------12--------------12-------12---------|
|-----10-------10-------10-----10-------10--------10--|
|---8--------8--------8------8--------8---------8-----|
|-----------------------------------------------------|


|--------------------------------------|
|--------------------------------------|
|--------12--------12------------------|
|------9---------9---------9-------9~--|
|---12--------12--------12------12-----|
|--------------------------------------|

Verse two
|-------------------------------------|
|-------------------------------------|
|---5-5-5-5-5-5-5-5--5-5-5-5-5-5-5-5--|
|---3-3-3-3-3-3-3-3--3-3-3-3-3-3-3-3--|
|---3-3-3-3-3-3-3-3--3-3-3-3-3-3-3-3--|
|---3-3-3-3-3-3-3-3--3-3-3-3-3-3-3-3--|

|---------------------------------------------|
|---------------------------------------------|
|---9-9-9-9-9-9-9-9-10-10-10-10-9-9-9-9--7--5-|
|---7-7-7-7-7-7-7-7-7--7--7--7--7-7-7-7--5--3-|
|---7-7-7-7-7-7-7-7-7--7--7--7--7-7-7-7--5--3-|
|---7-7-7-7-7-7-7-7-7--7--7--7--7-7-7-7--5--3-|

|-------------------------------------------|
|---5-5-5-----------------------------------|
|-----------7-7-7--5-5-5--7-7-7-5~----------|
|-------------------------------------------|
|-------------------------------------------|
|-------------------------------------------|

Intro
|---------------------------------------------------------------------------|
|---------------------------------------------------------------------------|
|---12-12-12-12-12-12-12-12---12-12-12-12-12-12-12---12-12-12-12-12-12-1212-|
|---10-10-10-10-10-10-10-10---10-10-10-10-10-10-10---10-10-10-10-10-10-1010-|
|---8--8--8--8--8--8--8--8----8--8--8--8--8--8--8----8--8--8--8--8--8--8----|
|---------------------------------------------------------------------------|

|-----------------------------------------------------------------------|
|-----------------------------------------------------------------------|
|---12-12-12-12-12-12-12---12-12-12-12-12-12-12---10-10-10-10-10-10-10--|
|---10-10-10-10-10-10-10---10-10-10-10-10-10-10---10-10-10-10-10-10-10--|
|---8--8--8--8/-10-10-10---12-12-12-12-12-12-12---12-12-12-12-12-12-12--|
|-----------------------------------------------------------------------|

|-------------------------------|
|-------------------------------|
|---9--9--9--9--9--9--9----12~--|
|---10-10-10-10-10-10-10---10~--|
|---12-12-12-12-12-12-12---10~--|
|-------------------------------|

*Order*
Intro
Verse
Chorus
Verse 2
Chorus
Interlude
Verse 2
Intro

         Lyrics
Tied to the testing of wills,
And my heart, Breaks and spills
Left to, The sight of the sky
In your arms im defined

We're thrown to the wolves in the minds of your enemies
(Minds of your enemies)
And I'm stone in the eyes, Of your foolishness

Well if this is, What im meant for
No longer interesting
Fall forward, To even the score
Just a thought to you

Tied to the testing of wills,
And my heart, Breaks and spills
Left to, The sight of the sky
In your arms im defined

We're thrown to the wolves in the minds of your enemies
(Minds of your enemies)
And I'm stone in the eyes, Of your foolishness

And I'm nothing more, Than a line in your book.
Yet I'm nothing more, Than a line in your book.
Yet I'm nothing more, Than a line in your book.
Yet I'm nothing more, Than a line in your book~~~~~~~~~~~~~~~~~~~.
                                 (in your book~~~~~~~)
                                 (in your book~~~~~)

Well if this is, What im meant for
No longer interesting
Fall forward, To even the score
Just a thought to you

just a thought to you!!!!!!!!
just a thought to you!!!!!!!!

Yet I'm nothing more, Yet I'm nothing more.
Than a line in your book.
Yet I'm nothing more
Than a line in your book~~~~~.
comments
We did not receive enough feedback on this tab! Please rate:
print report bad tab
1 2 3 4 5
3 comments total.
0 reply
royturner23 wrote on February 10 2008, 07:03 pm

I'm going to assume this is tuned in Drop Db.
So, I'll make this one the FIVE star tab for "Juneau" ;)

0 reply
rock roll boy 7 wrote on February 14 2008, 02:29 am

sweet! thanks, i play it in half a step but thats just me i dunno, maybe i'll try drop Db?

0 reply
iplayguitar :) wrote on April 8 2010, 08:03 pm

the interlude is probrally right seeing its like the intro :)

I want to post or [tab]
guest
You may want to rate the tab now too:
select rating
Please do not post tabs as comments. Select "correction" instead!